  0
SECTION
  2
HEADER
  9
$ACADVER
  1
AC1015
  9
$ACADMAINTVER
 70
    20
  9
$DWGCODEPAGE
  3
ANSI_1252
  9
$INSBASE
 10
0.0
 20
0.0
 30
0.0
  9
$EXTMIN
 10
0.2916299023185504
 20
0.3226489738653498
 30
-0.0000000000000279
  9
$EXTMAX
 10
13.62663020037903
 20
10.48264920095905
 30
0.0
  9
$LIMMIN
 10
0.0
 20
0.0
  9
$LIMMAX
 10
279.4
 20
215.9
  9
$ORTHOMODE
 70
     1
  9
$REGENMODE
 70
     1
  9
$FILLMODE
 70
     1
  9
$QTEXTMODE
 70
     0
  9
$MIRRTEXT
 70
     1
  9
$LTSCALE
 40
1.0
  9
$ATTMODE
 70
     1
  9
$TEXTSIZE
 40
2.5
  9
$TRACEWID
 40
1.0
  9
$TEXTSTYLE
  7
Standard
  9
$CLAYER
  8
0
  9
$CELTYPE
  6
ByLayer
  9
$CECOLOR
 62
   256
  9
$CELTSCALE
 40
1.0
  9
$DISPSILH
 70
     0
  9
$DIMSCALE
 40
1.0
  9
$DIMASZ
 40
3.174999999999999
  9
$DIMEXO
 40
1.27
  9
$DIMDLI
 40
3.75
  9
$DIMRND
 40
0.0
  9
$DIMDLE
 40
0.0
  9
$DIMEXE
 40
3.174999999999999
  9
$DIMTP
 40
0.0
  9
$DIMTM
 40
0.0
  9
$DIMTXT
 40
4.233333333333332
  9
$DIMCEN
 40
2.5
  9
$DIMTSZ
 40
0.0
  9
$DIMTOL
 70
     0
  9
$DIMLIM
 70
     0
  9
$DIMTIH
 70
     1
  9
$DIMTOH
 70
     1
  9
$DIMSE1
 70
     0
  9
$DIMSE2
 70
     0
  9
$DIMTAD
 70
     1
  9
$DIMZIN
 70
     0
  9
$DIMBLK
  1

  9
$DIMASO
 70
     1
  9
$DIMSHO
 70
     1
  9
$DIMPOST
  1

  9
$DIMAPOST
  1

  9
$DIMALT
 70
     0
  9
$DIMALTD
 70
     3
  9
$DIMALTF
 40
0.0393700787401575
  9
$DIMLFAC
 40
0.05
  9
$DIMTOFL
 70
     1
  9
$DIMTVP
 40
0.0
  9
$DIMTIX
 70
     0
  9
$DIMSOXD
 70
     0
  9
$DIMSAH
 70
     0
  9
$DIMBLK1
  1

  9
$DIMBLK2
  1

  9
$DIMSTYLE
  2
ISO-25
  9
$DIMCLRD
 70
     0
  9
$DIMCLRE
 70
     0
  9
$DIMCLRT
 70
     0
  9
$DIMTFAC
 40
1.0
  9
$DIMGAP
 40
1.524
  9
$DIMJUST
 70
     0
  9
$DIMSD1
 70
     0
  9
$DIMSD2
 70
     0
  9
$DIMTOLJ
 70
     0
  9
$DIMTZIN
 70
     0
  9
$DIMALTZ
 70
     0
  9
$DIMALTTZ
 70
     0
  9
$DIMUPT
 70
     0
  9
$DIMDEC
 70
     3
  9
$DIMTDEC
 70
     3
  9
$DIMALTU
 70
     2
  9
$DIMALTTD
 70
     3
  9
$DIMTXSTY
  7
Standard
  9
$DIMAUNIT
 70
     0
  9
$DIMADEC
 70
     0
  9
$DIMALTRND
 40
0.0
  9
$DIMAZIN
 70
     0
  9
$DIMDSEP
 70
    44
  9
$DIMATFIT
 70
     3
  9
$DIMFRAC
 70
     0
  9
$DIMLDRBLK
  1

  9
$DIMLUNIT
 70
     2
  9
$DIMLWD
 70
    -2
  9
$DIMLWE
 70
    -2
  9
$DIMTMOVE
 70
     0
  9
$LUNITS
 70
     2
  9
$LUPREC
 70
     4
  9
$SKETCHINC
 40
1.0
  9
$FILLETRAD
 40
10.0
  9
$AUNITS
 70
     0
  9
$AUPREC
 70
     0
  9
$MENU
  1
.
  9
$ELEVATION
 40
0.0
  9
$PELEVATION
 40
0.0
  9
$THICKNESS
 40
0.0
  9
$LIMCHECK
 70
     0
  9
$CHAMFERA
 40
0.0
  9
$CHAMFERB
 40
0.0
  9
$CHAMFERC
 40
20.0
  9
$CHAMFERD
 40
0.0
  9
$SKPOLY
 70
     0
  9
$TDCREATE
 40
2455604.861641042
  9
$TDUCREATE
 40
2455605.194974375
  9
$TDUPDATE
 40
2455626.857506377
  9
$TDUUPDATE
 40
2455627.190839711
  9
$TDINDWG
 40
0.0074349537
  9
$TDUSRTIMER
 40
0.0074349537
  9
$USRTIMER
 70
     1
  9
$ANGBASE
 50
0.0
  9
$ANGDIR
 70
     0
  9
$PDMODE
 70
     0
  9
$PDSIZE
 40
-1.0
  9
$PLINEWID
 40
0.0
  9
$SPLFRAME
 70
     0
  9
$SPLINETYPE
 70
     6
  9
$SPLINESEGS
 70
     8
  9
$HANDSEED
  5
A09
  9
$SURFTAB1
 70
     6
  9
$SURFTAB2
 70
     6
  9
$SURFTYPE
 70
     6
  9
$SURFU
 70
     6
  9
$SURFV
 70
     6
  9
$UCSBASE
  2

  9
$UCSNAME
  2

  9
$UCSORG
 10
0.0
 20
0.0
 30
0.0
  9
$UCSXDIR
 10
1.0
 20
0.0
 30
0.0
  9
$UCSYDIR
 10
0.0
 20
1.0
 30
0.0
  9
$UCSORTHOREF
  2

  9
$UCSORTHOVIEW
 70
     0
  9
$UCSORGTOP
 10
0.0
 20
0.0
 30
0.0
  9
$UCSORGBOTTOM
 10
0.0
 20
0.0
 30
0.0
  9
$UCSORGLEFT
 10
0.0
 20
0.0
 30
0.0
  9
$UCSORGRIGHT
 10
0.0
 20
0.0
 30
0.0
  9
$UCSORGFRONT
 10
0.0
 20
0.0
 30
0.0
  9
$UCSORGBACK
 10
0.0
 20
0.0
 30
0.0
  9
$PUCSBASE
  2

  9
$PUCSNAME
  2

  9
$PUCSORG
 10
0.0
 20
0.0
 30
0.0
  9
$PUCSXDIR
 10
1.0
 20
0.0
 30
0.0
  9
$PUCSYDIR
 10
0.0
 20
1.0
 30
0.0
  9
$PUCSORTHOREF
  2

  9
$PUCSORTHOVIEW
 70
     0
  9
$PUCSORGTOP
 10
0.0
 20
0.0
 30
0.0
  9
$PUCSORGBOTTOM
 10
0.0
 20
0.0
 30
0.0
  9
$PUCSORGLEFT
 10
0.0
 20
0.0
 30
0.0
  9
$PUCSORGRIGHT
 10
0.0
 20
0.0
 30
0.0
  9
$PUCSORGFRONT
 10
0.0
 20
0.0
 30
0.0
  9
$PUCSORGBACK
 10
0.0
 20
0.0
 30
0.0
  9
$USERI1
 70
     0
  9
$USERI2
 70
     0
  9
$USERI3
 70
     0
  9
$USERI4
 70
     0
  9
$USERI5
 70
     0
  9
$USERR1
 40
0.0
  9
$USERR2
 40
0.0
  9
$USERR3
 40
0.0
  9
$USERR4
 40
0.0
  9
$USERR5
 40
0.0
  9
$WORLDVIEW
 70
     1
  9
$SHADEDGE
 70
     3
  9
$SHADEDIF
 70
    70
  9
$TILEMODE
 70
     1
  9
$MAXACTVP
 70
    64
  9
$PINSBASE
 10
0.0
 20
0.0
 30
0.0
  9
$PLIMCHECK
 70
     0
  9
$PEXTMIN
 10
1.000000000000000E+20
 20
1.000000000000000E+20
 30
1.000000000000000E+20
  9
$PEXTMAX
 10
-1.000000000000000E+20
 20
-1.000000000000000E+20
 30
-1.000000000000000E+20
  9
$PLIMMIN
 10
0.0
 20
0.0
  9
$PLIMMAX
 10
420.0
 20
297.0
  9
$UNITMODE
 70
     0
  9
$VISRETAIN
 70
     1
  9
$PLINEGEN
 70
     0
  9
$PSLTSCALE
 70
     1
  9
$TREEDEPTH
 70
  3020
  9
$CMLSTYLE
  2
Standard
  9
$CMLJUST
 70
     0
  9
$CMLSCALE
 40
20.0
  9
$PROXYGRAPHICS
 70
     1
  9
$MEASUREMENT
 70
     1
  9
$CELWEIGHT
370
    -1
  9
$ENDCAPS
280
     0
  9
$JOINSTYLE
280
     0
  9
$LWDISPLAY
290
     1
  9
$INSUNITS
 70
     4
  9
$HYPERLINKBASE
  1

  9
$STYLESHEET
  1
monochrome.ctb
  9
$XEDIT
290
     1
  9
$CEPSNTYPE
380
     0
  9
$PSTYLEMODE
290
     1
  9
$FINGERPRINTGUID
  2
{C1A420CD-C9A7-47E9-8DB3-22AC21F95228}
  9
$VERSIONGUID
  2
{84C91D11-8FCA-480B-8107-8F6CE6463CB7}
  9
$EXTNAMES
290
     1
  9
$PSVPSCALE
 40
0.0
  9
$OLESTARTUP
290
     0
  0
ENDSEC
  0
SECTION
  2
CLASSES
  0
CLASS
  1
ACDBDICTIONARYWDFLT
  2
AcDbDictionaryWithDefault
  3
ObjectDBX Classes
 90
        0
280
     0
281
     0
  0
CLASS
  1
VISUALSTYLE
  2
AcDbVisualStyle
  3
ObjectDBX Classes
 90
     4095
280
     0
281
     0
  0
CLASS
  1
IMAGEDEF
  2
AcDbRasterImageDef
  3
ISM
 90
        0
280
     0
281
     0
  0
CLASS
  1
IMAGE
  2
AcDbRasterImage
  3
ISM
 90
     2175
280
     0
281
     1
  0
CLASS
  1
IMAGEDEF_REACTOR
  2
AcDbRasterImageDefReactor
  3
ISM
 90
        1
280
     0
281
     0
  0
CLASS
  1
SCALE
  2
AcDbScale
  3
ObjectDBX Classes
 90
     1153
280
     0
281
     0
  0
CLASS
  1
DICTIONARYVAR
  2
AcDbDictionaryVar
  3
ObjectDBX Classes
 90
        0
280
     0
281
     0
  0
CLASS
  1
MATERIAL
  2
AcDbMaterial
  3
ObjectDBX Classes
 90
     1153
280
     0
281
     0
  0
CLASS
  1
TABLESTYLE
  2
AcDbTableStyle
  3
ObjectDBX Classes
 90
     4095
280
     0
281
     0
  0
CLASS
  1
MLEADERSTYLE
  2
AcDbMLeaderStyle
  3
ACDB_MLEADERSTYLE_CLASS
 90
     4095
280
     0
281
     0
  0
CLASS
  1
RASTERVARIABLES
  2
AcDbRasterVariables
  3
ISM
 90
        0
280
     0
281
     0
  0
CLASS
  1
SORTENTSTABLE
  2
AcDbSortentsTable
  3
ObjectDBX Classes
 90
        0
280
     0
281
     0
  0
CLASS
  1
CELLSTYLEMAP
  2
AcDbCellStyleMap
  3
ObjectDBX Classes
 90
     1152
280
     0
281
     0
  0
CLASS
  1
ACDBPLACEHOLDER
  2
AcDbPlaceHolder
  3
ObjectDBX Classes
 90
        0
280
     0
281
     0
  0
CLASS
  1
LAYOUT
  2
AcDbLayout
  3
ObjectDBX Classes
 90
        0
280
     0
281
     0
  0
ENDSEC
  0
SECTION
  2
TABLES
  0
TABLE
  2
VPORT
  5
8
330
0
100
AcDbSymbolTable
 70
     1
  0
VPORT
  5
29
330
8
100
AcDbSymbolTableRecord
100
AcDbViewportTableRecord
  2
*Active
 70
     0
 10
0.0
 20
0.0
 11
1.0
 21
1.0
 12
6.961978645415456
 22
5.396182634269621
 13
0.0
 23
0.0
 14
10.0
 24
10.0
 15
10.0
 25
10.0
 16
0.0
 26
0.0
 36
1.0
 17
0.0
 27
0.0
 37
0.0
 40
10.25369353404352
 41
1.804298642533936
 42
50.0
 43
0.0
 44
0.0
 50
0.0
 51
0.0
 71
     0
 72
  2000
 73
     1
 74
     3
 75
     0
 76
     0
 77
     0
 78
     0
281
     0
 65
     1
110
0.0
120
0.0
130
0.0
111
1.0
121
0.0
131
0.0
112
0.0
122
1.0
132
0.0
 79
     0
146
0.0
  0
ENDTAB
  0
TABLE
  2
LTYPE
  5
5
330
0
100
AcDbSymbolTable
 70
     6
  0
LTYPE
  5
14
330
5
100
AcDbSymbolTableRecord
100
AcDbLinetypeTableRecord
  2
ByBlock
 70
     0
  3

 72
    65
 73
     0
 40
0.0
  0
LTYPE
  5
15
330
5
100
AcDbSymbolTableRecord
100
AcDbLinetypeTableRecord
  2
ByLayer
 70
     0
  3

 72
    65
 73
     0
 40
0.0
  0
LTYPE
  5
16
330
5
100
AcDbSymbolTableRecord
100
AcDbLinetypeTableRecord
  2
Continuous
 70
     0
  3
Solid line
 72
    65
 73
     0
 40
0.0
  0
LTYPE
  5
3B
330
5
100
AcDbSymbolTableRecord
100
AcDbLinetypeTableRecord
  2
HIDDEN
 70
     0
  3
Hidden __ __ __ __ __ __ __ __ __ __ __ __ __ __
 72
    65
 73
     2
 40
1.905
 49
1.27
 74
     0
 49
-0.635
 74
     0
  0
LTYPE
  5
3C
330
5
100
AcDbSymbolTableRecord
100
AcDbLinetypeTableRecord
  2
PHANTOM
 70
     0
  3
Phantom ______  __  __  ______  __  __  ______
 72
    65
 73
     6
 40
12.7
 49
6.349999999999999
 74
     0
 49
-1.27
 74
     0
 49
1.27
 74
     0
 49
-1.27
 74
     0
 49
1.27
 74
     0
 49
-1.27
 74
     0
  0
LTYPE
  5
3D
330
5
100
AcDbSymbolTableRecord
100
AcDbLinetypeTableRecord
  2
CENTER
 70
     0
  3
Center ____ _ ____ _ ____ _ ____ _ ____ _ ____
 72
    65
 73
     4
 40
10.16
 49
6.349999999999999
 74
     0
 49
-1.27
 74
     0
 49
1.27
 74
     0
 49
-1.27
 74
     0
  0
LTYPE
  5
3E
330
5
100
AcDbSymbolTableRecord
100
AcDbLinetypeTableRecord
  2
CENTERX2
 70
     0
  3
Center (2x) ________  __  ________  __  _____
 72
    65
 73
     4
 40
20.32
 49
12.7
 74
     0
 49
-2.54
 74
     0
 49
2.54
 74
     0
 49
-2.54
 74
     0
  0
LTYPE
  5
3F
330
5
100
AcDbSymbolTableRecord
100
AcDbLinetypeTableRecord
  2
DOT2
 70
     0
  3
Dot (.5x) ........................................
 72
    65
 73
     2
 40
0.635
 49
0.0
 74
     0
 49
-0.635
 74
     0
  0
ENDTAB
  0
TABLE
  2
LAYER
  5
2
102
{ACAD_XDICTIONARY
360
981
102
}
330
0
100
AcDbSymbolTable
 70
    19
  0
LAYER
  5
10
102
{ACAD_XDICTIONARY
360
95A
102
}
330
2
100
AcDbSymbolTableRecord
100
AcDbLayerTableRecord
  2
0
 70
     0
 62
     7
  6
Continuous
370
    -3
390
F
  0
LAYER
  5
40
102
{ACAD_XDICTIONARY
360
95C
102
}
330
2
100
AcDbSymbolTableRecord
100
AcDbLayerTableRecord
  2
SLD-0
 70
     0
 62
     7
  6
Continuous
370
    -3
390
F
  0
LAYER
  5
41
102
{ACAD_XDICTIONARY
360
95E
102
}
330
2
100
AcDbSymbolTableRecord
100
AcDbLayerTableRecord
  2
1
 70
     0
 62
     1
  6
CENTERX2
370
    -3
390
F
  0
LAYER
  5
42
102
{ACAD_XDICTIONARY
360
960
102
}
330
2
100
AcDbSymbolTableRecord
100
AcDbLayerTableRecord
  2
2
 70
     0
 62
   150
  6
HIDDEN
370
    -3
390
F
  0
LAYER
  5
43
102
{ACAD_XDICTIONARY
360
962
102
}
330
2
100
AcDbSymbolTableRecord
100
AcDbLayerTableRecord
  2
3
 70
     0
 62
    96
  6
PHANTOM
370
    15
390
F
  0
LAYER
  5
44
102
{ACAD_XDICTIONARY
360
964
102
}
330
2
100
AcDbSymbolTableRecord
100
AcDbLayerTableRecord
  2
4
 70
     0
 62
     7
  6
Continuous
370
    -3
390
F
  0
LAYER
  5
45
102
{ACAD_XDICTIONARY
360
966
102
}
330
2
100
AcDbSymbolTableRecord
100
AcDbLayerTableRecord
  2
5
 70
     0
 62
     5
  6
Continuous
370
    -3
390
F
  0
LAYER
  5
46
102
{ACAD_XDICTIONARY
360
968
102
}
330
2
100
AcDbSymbolTableRecord
100
AcDbLayerTableRecord
  2
6
 70
     0
 62
     5
  6
Continuous
370
    -3
390
F
  0
LAYER
  5
47
102
{ACAD_XDICTIONARY
360
96A
102
}
330
2
100
AcDbSymbolTableRecord
100
AcDbLayerTableRecord
  2
7
 70
     0
 62
     7
  6
Continuous
370
    -3
390
F
  0
LAYER
  5
48
102
{ACAD_XDICTIONARY
360
96C
102
}
330
2
100
AcDbSymbolTableRecord
100
AcDbLayerTableRecord
  2
8
 70
     0
 62
     7
  6
Continuous
370
    -3
390
F
  0
LAYER
  5
462
330
2
100
AcDbSymbolTableRecord
100
AcDbLayerTableRecord
  2
Defpoints
 70
     0
 62
     7
  6
Continuous
290
     0
370
    -3
390
F
  0
LAYER
  5
661
102
{ACAD_XDICTIONARY
360
96E
102
}
330
2
100
AcDbSymbolTableRecord
100
AcDbLayerTableRecord
  2
Notes
 70
     0
 62
   130
  6
Continuous
370
    -3
390
F
1001
AcAecLayerStandard
1000

1000

  0
LAYER
  5
662
102
{ACAD_XDICTIONARY
360
970
102
}
330
2
100
AcDbSymbolTableRecord
100
AcDbLayerTableRecord
  2
Dimensions
 70
     0
 62
     5
  6
Continuous
370
    -3
390
F
1001
AcAecLayerStandard
1000

1000

  0
LAYER
  5
663
102
{ACAD_XDICTIONARY
360
972
102
}
330
2
100
AcDbSymbolTableRecord
100
AcDbLayerTableRecord
  2
Titleblock
 70
     0
 62
     7
  6
Continuous
370
    -3
390
F
1001
AcAecLayerStandard
1000

1000

  0
LAYER
  5
664
102
{ACAD_XDICTIONARY
360
974
102
}
330
2
100
AcDbSymbolTableRecord
100
AcDbLayerTableRecord
  2
Detail
 70
     0
 62
     7
  6
Continuous
370
    -3
390
F
1001
AcAecLayerStandard
1000

1000

  0
LAYER
  5
665
102
{ACAD_XDICTIONARY
360
976
102
}
330
2
100
AcDbSymbolTableRecord
100
AcDbLayerTableRecord
  2
PCB_Pads
 70
     0
 62
    52
  6
Continuous
370
    -3
390
F
1001
AcAecLayerStandard
1000

1000

  0
LAYER
  5
666
102
{ACAD_XDICTIONARY
360
978
102
}
330
2
100
AcDbSymbolTableRecord
100
AcDbLayerTableRecord
  2
PCB_Soldermask
 70
     0
 62
    72
  6
Continuous
370
    -3
390
F
1001
AcAecLayerStandard
1000

1000

  0
LAYER
  5
667
102
{ACAD_XDICTIONARY
360
97A
102
}
330
2
100
AcDbSymbolTableRecord
100
AcDbLayerTableRecord
  2
QFN_Bottom
 70
     0
 62
   212
  6
Continuous
370
    -3
390
F
1001
AcAecLayerStandard
1000

1000

  0
LAYER
  5
668
102
{ACAD_XDICTIONARY
360
97C
102
}
330
2
100
AcDbSymbolTableRecord
100
AcDbLayerTableRecord
  2
QFN_Outline
 70
     0
 62
   190
  6
Continuous
370
    -3
390
F
1001
AcAecLayerStandard
1000

1000

  0
ENDTAB
  0
TABLE
  2
STYLE
  5
3
330
0
100
AcDbSymbolTable
 70
     4
  0
STYLE
  5
11
330
3
100
AcDbSymbolTableRecord
100
AcDbTextStyleTableRecord
  2
Standard
 70
     0
 40
0.0
 41
1.0
 50
0.0
 71
     0
 42
2.5
  3
txt
  4

  0
STYLE
  5
61
330
3
100
AcDbSymbolTableRecord
100
AcDbTextStyleTableRecord
  2
SLDTEXTSTYLE0
 70
     0
 40
0.0
 41
0.605
 50
0.0
 71
     0
 42
0.2
  3
TXT
  4

  0
STYLE
  5
98
330
3
100
AcDbSymbolTableRecord
100
AcDbTextStyleTableRecord
  2
SLDTEXTSTYLE1
 70
     0
 40
0.0
 41
0.6381856540084389
 50
0.0
 71
     0
 42
0.2
  3
TXT
  4

  0
STYLE
  5
A0
330
3
100
AcDbSymbolTableRecord
100
AcDbTextStyleTableRecord
  2
SLDTEXTSTYLE2
 70
     0
 40
0.0
 41
0.5629999999999999
 50
0.0
 71
     0
 42
0.2
  3
TXT
  4

  0
ENDTAB
  0
TABLE
  2
VIEW
  5
6
330
0
100
AcDbSymbolTable
 70
     0
  0
ENDTAB
  0
TABLE
  2
UCS
  5
7
330
0
100
AcDbSymbolTable
 70
     0
  0
ENDTAB
  0
TABLE
  2
APPID
  5
9
330
0
100
AcDbSymbolTable
 70
     8
  0
APPID
  5
12
330
9
100
AcDbSymbolTableRecord
100
AcDbRegAppTableRecord
  2
ACAD
 70
     0
  0
APPID
  5
66B
330
9
100
AcDbSymbolTableRecord
100
AcDbRegAppTableRecord
  2
AcadAnnotative
 70
     0
  0
APPID
  5
66C
330
9
100
AcDbSymbolTableRecord
100
AcDbRegAppTableRecord
  2
ACAD_DSTYLE_DIMJAG
 70
     0
  0
APPID
  5
66D
330
9
100
AcDbSymbolTableRecord
100
AcDbRegAppTableRecord
  2
ACAD_DSTYLE_DIMTALN
 70
     0
  0
APPID
  5
66E
330
9
100
AcDbSymbolTableRecord
100
AcDbRegAppTableRecord
  2
AcAecLayerStandard
 70
     0
  0
APPID
  5
991
330
9
100
AcDbSymbolTableRecord
100
AcDbRegAppTableRecord
  2
ACAD_PSEXT
 70
     0
  0
APPID
  5
9A5
330
9
100
AcDbSymbolTableRecord
100
AcDbRegAppTableRecord
  2
ACAD_EXEMPT_FROM_CAD_STANDARDS
 70
     0
  0
APPID
  5
A08
330
9
100
AcDbSymbolTableRecord
100
AcDbRegAppTableRecord
  2
ACAD_MLEADERVER
 70
     0
  0
ENDTAB
  0
TABLE
  2
DIMSTYLE
  5
A
330
0
100
AcDbSymbolTable
 70
    17
100
AcDbDimStyleTable
 71
     1
340
27
  0
DIMSTYLE
105
27
330
A
100
AcDbSymbolTableRecord
100
AcDbDimStyleTableRecord
  2
ISO-25
 70
     0
 41
2.5
 42
0.625
 43
3.75
 44
1.25
 73
     0
 74
     0
 77
     1
 78
     8
140
2.5
141
2.5
143
0.03937007874016
147
0.625
171
     3
172
     1
271
     2
272
     2
274
     3
278
    44
283
     0
284
     8
340
11
  0
DIMSTYLE
105
313
330
A
100
AcDbSymbolTableRecord
100
AcDbDimStyleTableRecord
  2
SLDDIMSTYLE0
 70
     0
 41
3.174999999999999
 44
0.0
 45
0.000000001
 78
     4
140
3.081982421874999
144
0.05
147
0.77049560546875
173
     1
271
     2
272
     3
284
    12
340
61
  0
DIMSTYLE
105
31F
330
A
100
AcDbSymbolTableRecord
100
AcDbDimStyleTableRecord
  2
SLDDIMSTYLE1
 70
     0
 41
3.174999999999999
 44
0.0
 45
0.000000001
 78
     4
140
3.081982421874999
144
0.05
147
0.77049560546875
173
     1
271
     2
272
     3
284
    12
340
61
  0
DIMSTYLE
105
336
330
A
100
AcDbSymbolTableRecord
100
AcDbDimStyleTableRecord
  2
SLDDIMSTYLE2
 70
     0
 41
3.174999999999999
 44
0.0
 45
0.000000001
 78
    12
140
3.081982421874999
144
0.05
147
0.77049560546875
173
     1
271
     1
272
     3
284
    12
340
61
  0
DIMSTYLE
105
363
330
A
100
AcDbSymbolTableRecord
100
AcDbDimStyleTableRecord
  2
SLDDIMSTYLE3
 70
     0
 41
3.174999999999999
 44
0.0
 45
0.000000001
 78
    12
140
3.081982421874999
144
0.05
147
0.77049560546875
173
     1
271
     2
272
     3
284
    12
340
61
  0
DIMSTYLE
105
37B
330
A
100
AcDbSymbolTableRecord
100
AcDbDimStyleTableRecord
  2
SLDDIMSTYLE4
 70
     0
 41
3.174999999999999
 44
0.0
 45
0.000000001
 78
    12
140
3.081982421874999
144
0.05
147
0.77049560546875
173
     1
272
     3
284
    12
340
61
  0
DIMSTYLE
105
392
330
A
100
AcDbSymbolTableRecord
100
AcDbDimStyleTableRecord
  2
SLDDIMSTYLE5
 70
     0
 41
3.174999999999999
 44
0.0
 45
0.000000001
140
0.0
146
3.174999999999999
147
0.0
173
     1
271
     0
272
     0
340
11
  0
DIMSTYLE
105
399
330
A
100
AcDbSymbolTableRecord
100
AcDbDimStyleTableRecord
  2
SLDDIMSTYLE6
 70
     0
 41
1.27
 44
0.0
 45
0.000000001
140
0.0
146
1.27
147
0.0
173
     1
271
     0
272
     0
340
11
341
39A
343
39A
344
39A
  0
DIMSTYLE
105
3B0
330
A
100
AcDbSymbolTableRecord
100
AcDbDimStyleTableRecord
  2
SLDDIMSTYLE7
 70
     0
 41
6.096
 44
0.0
 45
0.000000001
140
0.0
146
6.096
147
0.0
173
     1
271
     0
272
     0
340
11
341
3B1
343
3B1
344
3B1
  0
DIMSTYLE
105
3E0
330
A
100
AcDbSymbolTableRecord
100
AcDbDimStyleTableRecord
  2
SLDDIMSTYLE8
 70
     0
 41
3.174999999999999
 44
0.0
 45
0.000000001
 78
     4
140
3.081982421874999
144
0.025
147
0.77049560546875
173
     1
271
     2
272
     3
284
    12
340
61
  0
DIMSTYLE
105
3EC
330
A
100
AcDbSymbolTableRecord
100
AcDbDimStyleTableRecord
  2
SLDDIMSTYLE9
 70
     0
 41
3.174999999999999
 44
0.0
 45
0.000000001
 78
     4
140
3.081982421874999
144
0.025
147
0.77049560546875
173
     1
271
     2
272
     3
284
    12
340
61
  0
DIMSTYLE
105
3F8
330
A
100
AcDbSymbolTableRecord
100
AcDbDimStyleTableRecord
  2
SLDDIMSTYLE10
 70
     0
 41
3.174999999999999
 44
0.0
 45
0.000000001
 78
    12
140
3.081982421874999
144
0.025
147
0.77049560546875
173
     1
272
     3
284
    12
340
61
  0
DIMSTYLE
105
402
330
A
100
AcDbSymbolTableRecord
100
AcDbDimStyleTableRecord
  2
SLDDIMSTYLE11
 70
     0
 41
3.174999999999999
 44
0.0
 45
0.000000001
 78
    12
140
3.081982421874999
144
0.025
147
0.77049560546875
173
     1
271
     2
272
     3
284
    12
340
61
  0
DIMSTYLE
105
40F
330
A
100
AcDbSymbolTableRecord
100
AcDbDimStyleTableRecord
  2
SLDDIMSTYLE12
 70
     0
 41
3.174999999999999
 44
0.0
 45
0.000000001
 78
    12
140
3.081982421874999
144
0.025
147
0.77049560546875
173
     1
271
     2
272
     3
284
    12
340
61
  0
DIMSTYLE
105
41B
330
A
100
AcDbSymbolTableRecord
100
AcDbDimStyleTableRecord
  2
SLDDIMSTYLE13
 70
     0
 41
3.174999999999999
 44
0.0
 45
0.000000001
 78
     4
140
3.081982421874999
144
0.025
147
0.77049560546875
173
     1
271
     3
272
     3
284
    12
340
61
  0
DIMSTYLE
105
669
330
A
100
AcDbSymbolTableRecord
100
AcDbDimStyleTableRecord
  2
Standard
 70
     0
340
11
  0
DIMSTYLE
105
66A
330
A
100
AcDbSymbolTableRecord
100
AcDbDimStyleTableRecord
  2
Annotative
 70
     0
 40
0.0
340
11
1001
AcadAnnotative
1000
AnnotativeData
1002
{
1070
     1
1070
     1
1002
}
1001
ACAD_DSTYLE_DIMJAG
1070
   388
1040
1.5
1001
ACAD_DSTYLE_DIMTALN
1070
   392
1070
     0
  0
ENDTAB
  0
TABLE
  2
BLOCK_RECORD
  5
1
330
0
100
AcDbSymbolTable
 70
     9
  0
BLOCK_RECORD
  5
1F
102
{ACAD_XDICTIONARY
360
72B
102
}
330
1
100
AcDbSymbolTableRecord
100
AcDbBlockTableRecord
  2
*Model_Space
340
22
  0
BLOCK_RECORD
  5
1B
330
1
100
AcDbSymbolTableRecord
100
AcDbBlockTableRecord
  2
*Paper_Space
340
1E
  0
BLOCK_RECORD
  5
23
330
1
100
AcDbSymbolTableRecord
100
AcDbBlockTableRecord
  2
*Paper_Space0
340
26
  0
BLOCK_RECORD
  5
5E
330
1
100
AcDbSymbolTableRecord
100
AcDbBlockTableRecord
  2
SW_NOTE_0
340
0
  0
BLOCK_RECORD
  5
A3
330
1
100
AcDbSymbolTableRecord
100
AcDbBlockTableRecord
  2
SW_NOTE_1
340
0
  0
BLOCK_RECORD
  5
386
330
1
100
AcDbSymbolTableRecord
100
AcDbBlockTableRecord
  2
SW_NOTE_2
340
0
  0
BLOCK_RECORD
  5
38C
330
1
100
AcDbSymbolTableRecord
100
AcDbBlockTableRecord
  2
SW_NOTE_3
340
0
  0
BLOCK_RECORD
  5
39A
330
1
100
AcDbSymbolTableRecord
100
AcDbBlockTableRecord
  2
_DOT
340
0
  0
BLOCK_RECORD
  5
3A5
330
1
100
AcDbSymbolTableRecord
100
AcDbBlockTableRecord
  2
SW_NOTE_4
340
0
  0
BLOCK_RECORD
  5
3B1
330
1
100
AcDbSymbolTableRecord
100
AcDbBlockTableRecord
  2
_NONE
340
0
  0
BLOCK_RECORD
  5
434
330
1
100
AcDbSymbolTableRecord
100
AcDbBlockTableRecord
  2
SW_NOTE_5
340
0
  0
ENDTAB
  0
ENDSEC
  0
SECTION
  2
BLOCKS
  0
BLOCK
  5
20
330
1F
100
AcDbEntity
  8
0
100
AcDbBlockBegin
  2
*Model_Space
 70
     0
 10
0.0
 20
0.0
 30
0.0
  3
*Model_Space
  1

  0
ENDBLK
  5
21
330
1F
100
AcDbEntity
  8
0
100
AcDbBlockEnd
  0
BLOCK
  5
1C
330
1B
100
AcDbEntity
 67
     1
  8
0
100
AcDbBlockBegin
  2
*Paper_Space
 70
     0
 10
0.0
 20
0.0
 30
0.0
  3
*Paper_Space
  1

  0
ENDBLK
  5
1D
330
1B
100
AcDbEntity
 67
     1
  8
0
100
AcDbBlockEnd
  0
BLOCK
  5
24
330
23
100
AcDbEntity
 67
     1
  8
0
100
AcDbBlockBegin
  2
*Paper_Space0
 70
     0
 10
0.0
 20
0.0
 30
0.0
  3
*Paper_Space0
  1

  0
ENDBLK
  5
25
330
23
100
AcDbEntity
 67
     1
  8
0
100
AcDbBlockEnd
  0
BLOCK
  5
5F
330
5E
100
AcDbEntity
  8
0
100
AcDbBlockBegin
  2
SW_NOTE_0
 70
     0
 10
0.0
 20
0.0
 30
0.0
  3
SW_NOTE_0
  1

  0
MTEXT
  5
84
330
5E
100
AcDbEntity
  8
4
 62
     0
100
AcDbMText
 10
0.0
 20
2.728526715850665
 30
0.0
 40
2.116666666666666
 41
0.0
 71
     1
 72
     1
  1
Notes: (Unless Otherwise Specified).
  7
SLDTEXTSTYLE0
 73
     1
 44
1.0
1001
ACAD
1000
MTEXTBEGIN
1070
    73
1070
     1
1070
    44
1040
1.0
1070
    74
1070
     0
1000
MTEXTEND
  0
MTEXT
  5
85
330
5E
100
AcDbEntity
  8
4
 62
     0
100
AcDbMText
 10
0.0
 20
-0.0936954722644615
 30
0.0
 40
2.116666666666666
 41
0.0
 71
     1
 72
     1
  1
  1) DIMENSIONS ARE PRESENTED ONLY AS A GUIDELINE. 
  7
SLDTEXTSTYLE0
 73
     1
 44
1.0
1001
ACAD
1000
MTEXTBEGIN
1070
    73
1070
     1
1070
    44
1040
1.0
1070
    74
1070
     0
1000
MTEXTEND
  0
MTEXT
  5
86
330
5E
100
AcDbEntity
  8
4
 62
     0
100
AcDbMText
 10
0.0
 20
-2.915917660379581
 30
0.0
 40
2.116666666666666
 41
0.0
 71
     1
 72
     1
  1
      DESIGNERS SHOULD USE THEIR OWN KNOWLEDGE BASE WHEN DESIGNING THE PCB.
  7
SLDTEXTSTYLE0
 73
     1
 44
1.0
1001
ACAD
1000
MTEXTBEGIN
1070
    73
1070
     1
1070
    44
1040
1.0
1070
    74
1070
     0
1000
MTEXTEND
  0
MTEXT
  5
87
330
5E
100
AcDbEntity
  8
4
 62
     0
100
AcDbMText
 10
0.0
 20
-5.738139848494701
 30
0.0
 40
2.116666666666666
 41
0.0
 71
     1
 72
     1
  1
  2) SURROUND EACH SIDE OF I/O PERIMETER PADS WITH 0.060~0.075 mm (NSMD) SOLDER MASK 
  7
SLDTEXTSTYLE0
 73
     1
 44
1.0
1001
ACAD
1000
MTEXTBEGIN
1070
    73
1070
     1
1070
    44
1040
1.0
1070
    74
1070
     0
1000
MTEXTEND
  0
MTEXT
  5
88
330
5E
100
AcDbEntity
  8
4
 62
     0
100
AcDbMText
 10
0.0
 20
-8.56036203660982
 30
0.0
 40
2.116666666666666
 41
0.0
 71
     1
 72
     1
  1
      OPENING (2.4~3.0mils). OPTIONALLY OK TO USE RECTANGLE (NSMD) MASK OPENING AROUND I/O PADS.
  7
SLDTEXTSTYLE0
 73
     1
 44
1.0
1001
ACAD
1000
MTEXTBEGIN
1070
    73
1070
     1
1070
    44
1040
1.0
1070
    74
1070
     0
1000
MTEXTEND
  0
MTEXT
  5
89
330
5E
100
AcDbEntity
  8
4
 62
     0
100
AcDbMText
 10
0.0
 20
-11.38258422472494
 30
0.0
 40
2.116666666666666
 41
0.0
 71
     1
 72
     1
  1
  3) ROUNDED PCB LAND PADS REDUCE SOLDER BRIDGING.
  7
SLDTEXTSTYLE0
 73
     1
 44
1.0
1001
ACAD
1000
MTEXTBEGIN
1070
    73
1070
     1
1070
    44
1040
1.0
1070
    74
1070
     0
1000
MTEXTEND
  0
MTEXT
  5
8A
330
5E
100
AcDbEntity
  8
4
 62
     0
100
AcDbMText
 10
0.0
 20
-14.20480641284006
 30
0.0
 40
2.116666666666666
 41
0.0
 71
     1
 72
     1
  1
  4) PCB LANDS SHOULD BE 0.2mm LONGER THEN THE PACKAGE I/O PADS.
  7
SLDTEXTSTYLE0
 73
     1
 44
1.0
1001
ACAD
1000
MTEXTBEGIN
1070
    73
1070
     1
1070
    44
1040
1.0
1070
    74
1070
     0
1000
MTEXTEND
  0
MTEXT
  5
8B
330
5E
100
AcDbEntity
  8
4
 62
     0
100
AcDbMText
 10
0.0
 20
-17.02702860095518
 30
0.0
 40
2.116666666666666
 41
0.0
 71
     1
 72
     1
  1
  5) THE WIDTH OF PERIMETER PCB PADS SHOULD MATCH (1:1) THE SAME WIDTH AS THE PACKAGE PADS.
  7
SLDTEXTSTYLE0
 73
     1
 44
1.0
1001
ACAD
1000
MTEXTBEGIN
1070
    73
1070
     1
1070
    44
1040
1.0
1070
    74
1070
     0
1000
MTEXTEND
  0
MTEXT
  5
8C
330
5E
100
AcDbEntity
  8
4
 62
     0
100
AcDbMText
 10
0.0
 20
-19.8492507890703
 30
0.0
 40
2.116666666666666
 41
0.0
 71
     1
 72
     1
  1
  6) REFER TO INDUSTRY REFERENCES SUCH AS IPC-SM-782 FOR PCB LAND PATTERN DESIGN.
  7
SLDTEXTSTYLE0
 73
     1
 44
1.0
1001
ACAD
1000
MTEXTBEGIN
1070
    73
1070
     1
1070
    44
1040
1.0
1070
    74
1070
     0
1000
MTEXTEND
  0
MTEXT
  5
8D
330
5E
100
AcDbEntity
  8
4
 62
     0
100
AcDbMText
 10
0.0
 20
-22.67147297718542
 30
0.0
 40
2.116666666666666
 41
0.0
 71
     1
 72
     1
  1
  7) THERMAL GROUND PADS MAY BE CHANGED TO SUITE REQUIREMENTS OF THE DESIGNER.
  7
SLDTEXTSTYLE0
 73
     1
 44
1.0
1001
ACAD
1000
MTEXTBEGIN
1070
    73
1070
     1
1070
    44
1040
1.0
1070
    74
1070
     0
1000
MTEXTEND
  0
MTEXT
  5
8E
330
5E
100
AcDbEntity
  8
4
 62
     0
100
AcDbMText
 10
10.0
 20
-25.49369516530054
 30
0.0
 40
2.116666666666666
 41
0.0
 71
     1
 72
     1
  1
A. MAKE COPPER THERMAL PAD AS LARGE AS POSSIBLE.
  7
SLDTEXTSTYLE0
 73
     1
 44
1.0
1001
ACAD
1000
MTEXTBEGIN
1070
    73
1070
     1
1070
    44
1040
1.0
1070
    74
1070
     0
1000
MTEXTEND
  0
MTEXT
  5
8F
330
5E
100
AcDbEntity
  8
4
 62
     0
100
AcDbMText
 10
10.0
 20
-28.31591735341566
 30
0.0
 40
2.116666666666666
 41
0.0
 71
     1
 72
     1
  1
B. DRILL MULTIPLE THERMAL VIAS 0.25~0.33mm DIAMETER USING 0.8~1.2mm PITCH GRID.
  7
SLDTEXTSTYLE0
 73
     1
 44
1.0
1001
ACAD
1000
MTEXTBEGIN
1070
    73
1070
     1
1070
    44
1040
1.0
1070
    74
1070
     0
1000
MTEXTEND
  0
MTEXT
  5
90
330
5E
100
AcDbEntity
  8
4
 62
     0
100
AcDbMText
 10
10.0
 20
-31.13813954153078
 30
0.0
 40
2.116666666666666
 41
0.0
 71
     1
 72
     1
  1
C. PLATE THERMAL VIA BARRELS WITH 1-OUNCE COPPER (18µm).
  7
SLDTEXTSTYLE0
 73
     1
 44
1.0
1001
ACAD
1000
MTEXTBEGIN
1070
    73
1070
     1
1070
    44
1040
1.0
1070
    74
1070
     0
1000
MTEXTEND
  0
MTEXT
  5
91
330
5E
100
AcDbEntity
  8
4
 62
     0
100
AcDbMText
 10
10.0
 20
-33.96036172964591
 30
0.0
 40
2.116666666666666
 41
0.0
 71
     1
 72
     1
  1
D. TENT (COVER) THERMAL VIAS WITH SOLDER MASK 0.1mm LARGER THEN THE VIA DIAMETER.
  7
SLDTEXTSTYLE0
 73
     1
 44
1.0
1001
ACAD
1000
MTEXTBEGIN
1070
    73
1070
     1
1070
    44
1040
1.0
1070
    74
1070
     0
1000
MTEXTEND
  0
MTEXT
  5
92
330
5E
100
AcDbEntity
  8
4
 62
     0
100
AcDbMText
 10
0.0
 20
-36.78258391776103
 30
0.0
 40
2.116666666666666
 41
0.0
 71
     1
 72
     1
  1
   8) STENCIL DESIGN MAY BE CHANGED TO SUITE REQUIREMENTS OF THE DESIGNER.
  7
SLDTEXTSTYLE0
 73
     1
 44
1.0
1001
ACAD
1000
MTEXTBEGIN
1070
    73
1070
     1
1070
    44
1040
1.0
1070
    74
1070
     0
1000
MTEXTEND
  0
MTEXT
  5
93
330
5E
100
AcDbEntity
  8
4
 62
     0
100
AcDbMText
 10
0.0
 20
-39.60480610587615
 30
0.0
 40
2.116666666666666
 41
0.0
 71
     1
 72
     1
  1
             A. LASER CUT STENCIL 0.125mm (5mil) THICK. APERTURE SIZE-TO-LAND RATIO OF 1:1.
  7
SLDTEXTSTYLE0
 73
     1
 44
1.0
1001
ACAD
1000
MTEXTBEGIN
1070
    73
1070
     1
1070
    44
1040
1.0
1070
    74
1070
     0
1000
MTEXTEND
  0
MTEXT
  5
94
330
5E
100
AcDbEntity
  8
4
 62
     0
100
AcDbMText
 10
0.0
 20
-42.42702829399126
 30
0.0
 40
2.116666666666666
 41
0.0
 71
     1
 72
     1
  1
             B. THE SOLDER PASTE OPENING IN THE THERMAL PAD AREA SHOULD BE A MATRIX ARRAY OF
  7
SLDTEXTSTYLE0
 73
     1
 44
1.0
1001
ACAD
1000
MTEXTBEGIN
1070
    73
1070
     1
1070
    44
1040
1.0
1070
    74
1070
     0
1000
MTEXTEND
  0
MTEXT
  5
95
330
5E
100
AcDbEntity
  8
4
 62
     0
100
AcDbMText
 10
0.0
 20
-45.24925048210638
 30
0.0
 40
2.116666666666666
 41
0.0
 71
     1
 72
     1
  1
                 SMALLER APERTURES INSTEAD OF ONE LARGE APERTURE TO CONTROL PASTE AMOUNTS.
  7
SLDTEXTSTYLE0
 73
     1
 44
1.0
1001
ACAD
1000
MTEXTBEGIN
1070
    73
1070
     1
1070
    44
1040
1.0
1070
    74
1070
     0
1000
MTEXTEND
  0
MTEXT
  5
96
330
5E
100
AcDbEntity
  8
4
 62
     0
100
AcDbMText
 10
0.0
 20
-48.0714726702215
 30
0.0
 40
2.116666666666666
 41
0.0
 71
     1
 72
     1
  1
             C. APPLY 50% TO 80% SOLDER PASTE COVERAGE IN THE THERMAL PAD AREA.
  7
SLDTEXTSTYLE0
 73
     1
 44
1.0
1001
ACAD
1000
MTEXTBEGIN
1070
    73
1070
     1
1070
    44
1040
1.0
1070
    74
1070
     0
1000
MTEXTEND
  0
ENDBLK
  5
60
330
5E
100
AcDbEntity
  8
0
100
AcDbBlockEnd
  0
BLOCK
  5
A4
330
A3
100
AcDbEntity
  8
0
100
AcDbBlockBegin
  2
SW_NOTE_1
 70
     0
 10
0.0
 20
0.0
 30
0.0
  3
SW_NOTE_1
  1

  0
MTEXT
  5
A6
330
A3
100
AcDbEntity
  8
8
 62
     0
100
AcDbMText
 10
0.0
 20
2.046395036887995
 30
0.0
 40
1.587499999999999
 41
0.0
 71
     1
 72
     1
  1
SCALE
  7
SLDTEXTSTYLE0
 73
     1
 44
1.0
1001
ACAD
1000
MTEXTBEGIN
1070
    73
1070
     1
1070
    44
1040
1.0
1070
    74
1070
     0
1000
MTEXTEND
  0
MTEXT
  5
A7
330
A3
100
AcDbEntity
  8
8
 62
     0
100
AcDbMText
 10
0.0
 20
-0.2436260667534398
 30
0.0
 40
2.116666666666666
 41
0.0
 71
     1
 72
     1
  1
        20:1 
  7
SLDTEXTSTYLE0
 73
     1
 44
1.0
1001
ACAD
1000
MTEXTBEGIN
1070
    73
1070
     1
1070
    44
1040
1.0
1070
    74
1070
     0
1000
MTEXTEND
  0
ENDBLK
  5
A5
330
A3
100
AcDbEntity
  8
0
100
AcDbBlockEnd
  0
BLOCK
  5
387
330
386
100
AcDbEntity
  8
0
100
AcDbBlockBegin
  2
SW_NOTE_2
 70
     0
 10
0.0
 20
0.0
 30
0.0
  3
SW_NOTE_2
  1

  0
MTEXT
  5
389
330
386
100
AcDbEntity
  8
5
 62
     0
100
AcDbMText
 10
0.0
 20
4.092790073775997
 30
0.0
 40
3.174999999999999
 41
0.0
 71
     1
 72
     1
  1
RECOMMENDED PC BOARD LAYOUT
  7
SLDTEXTSTYLE0
 73
     1
 44
1.0
1001
ACAD
1000
MTEXTBEGIN
1070
    73
1070
     1
1070
    44
1040
1.0
1070
    74
1070
     0
1000
MTEXTEND
  0
MTEXT
  5
38A
330
386
100
AcDbEntity
  8
5
 62
     0
100
AcDbMText
 10
17.52129383385181
 20
-0.1405432083966818
 30
0.0
 40
3.174999999999999
 41
0.0
 71
     1
 72
     1
  1
DIMENSIONS IN MM
  7
SLDTEXTSTYLE0
 73
     1
 44
1.0
1001
ACAD
1000
MTEXTBEGIN
1070
    73
1070
     1
1070
    44
1040
1.0
1070
    74
1070
     0
1000
MTEXTEND
  0
ENDBLK
  5
388
330
386
100
AcDbEntity
  8
0
100
AcDbBlockEnd
  0
BLOCK
  5
38D
330
38C
100
AcDbEntity
  8
0
100
AcDbBlockBegin
  2
SW_NOTE_3
 70
     0
 10
0.0
 20
0.0
 30
0.0
  3
SW_NOTE_3
  1

  0
MTEXT
  5
38F
330
38C
100
AcDbEntity
  8
5
 62
     0
100
AcDbMText
 10
0.5008508367511933
 20
1.526755807002524
 30
0.0
 40
3.174999999999999
 41
0.0
 71
     1
 72
     1
  1
COMPONENT
  7
SLDTEXTSTYLE0
 73
     1
 44
1.0
1001
ACAD
1000
MTEXTBEGIN
1070
    73
1070
     1
1070
    44
1040
1.0
1070
    74
1070
     0
1000
MTEXTEND
  0
MTEXT
  5
390
330
38C
100
AcDbEntity
  8
5
 62
     0
100
AcDbMText
 10
5.086961659607619
 20
-2.706577475170155
 30
0.0
 40
3.174999999999999
 41
0.0
 71
     1
 72
     1
  1
OUTLINE
  7
SLDTEXTSTYLE0
 73
     1
 44
1.0
1001
ACAD
1000
MTEXTBEGIN
1070
    73
1070
     1
1070
    44
1040
1.0
1070
    74
1070
     0
1000
MTEXTEND
  0
ENDBLK
  5
38E
330
38C
100
AcDbEntity
  8
0
100
AcDbBlockEnd
  0
BLOCK
  5
39B
330
39A
100
AcDbEntity
  8
0
100
AcDbBlockBegin
  2
_DOT
 70
     0
 10
0.0
 20
0.0
 30
0.0
  3
_DOT
  1

  0
POLYLINE
  5
39D
330
39A
100
AcDbEntity
  8
0
  6
ByBlock
 62
     0
100
AcDb2dPolyline
 66
     1
 10
0.0
 20
0.0
 30
0.0
 70
     1
 40
0.5
 41
0.5
  0
VERTEX
  5
39F
330
39D
100
AcDbEntity
  8
0
  6
ByBlock
 62
     0
100
AcDbVertex
100
AcDb2dVertex
 10
-0.25
 20
0.0
 30
0.0
 42
1.0
  0
VERTEX
  5
3A0
330
39D
100
AcDbEntity
  8
0
  6
ByBlock
 62
     0
100
AcDbVertex
100
AcDb2dVertex
 10
0.25
 20
0.0
 30
0.0
 42
1.0
  0
SEQEND
  5
3A1
330
39D
100
AcDbEntity
  8
0
  6
ByBlock
 62
     0
  0
LINE
  5
39E
330
39A
100
AcDbEntity
  8
0
  6
ByBlock
 62
     0
370
    -2
100
AcDbLine
 10
-0.5
 20
0.0
 30
0.0
 11
-1.0
 21
0.0
 31
0.0
  0
ENDBLK
  5
39C
330
39A
100
AcDbEntity
  8
0
100
AcDbBlockEnd
  0
BLOCK
  5
3A6
330
3A5
100
AcDbEntity
  8
0
100
AcDbBlockBegin
  2
SW_NOTE_4
 70
     0
 10
0.0
 20
0.0
 30
0.0
  3
SW_NOTE_4
  1

  0
MTEXT
  5
3A8
330
3A5
100
AcDbEntity
  8
5
 62
     0
100
AcDbMText
 10
0.5018629756201043
 20
1.526727167967173
 30
0.0
 40
3.174999999999999
 41
0.0
 71
     1
 72
     1
  1
PCB THERMAL PAD
  7
SLDTEXTSTYLE0
 73
     1
 44
1.0
1001
ACAD
1000
MTEXTBEGIN
1070
    73
1070
     1
1070
    44
1040
1.0
1070
    74
1070
     0
1000
MTEXTEND
  0
MTEXT
  5
3A9
330
3A5
100
AcDbEntity
  8
5
 62
     0
100
AcDbMText
 10
1.089827406071497
 20
-2.706606114205506
 30
0.0
 40
3.174999999999999
 41
0.0
 71
     1
 72
     1
  1
DESIGN OPTIONAL
  7
SLDTEXTSTYLE0
 73
     1
 44
1.0
1001
ACAD
1000
MTEXTBEGIN
1070
    73
1070
     1
1070
    44
1040
1.0
1070
    74
1070
     0
1000
MTEXTEND
  0
MTEXT
  5
3AA
330
3A5
100
AcDbEntity
  8
5
 62
     0
100
AcDbMText
 10
5.440751339160277
 20
-6.939939396378186
 30
0.0
 40
3.174999999999999
 41
0.0
 71
     1
 72
     1
  1
SEE NOTE 7&8
  7
SLDTEXTSTYLE0
 73
     1
 44
1.0
1001
ACAD
1000
MTEXTBEGIN
1070
    73
1070
     1
1070
    44
1040
1.0
1070
    74
1070
     0
1000
MTEXTEND
  0
ENDBLK
  5
3A7
330
3A5
100
AcDbEntity
  8
0
100
AcDbBlockEnd
  0
BLOCK
  5
3B2
330
3B1
100
AcDbEntity
  8
0
100
AcDbBlockBegin
  2
_NONE
 70
     0
 10
0.0
 20
0.0
 30
0.0
  3
_NONE
  1

  0
ENDBLK
  5
3B3
330
3B1
100
AcDbEntity
  8
0
100
AcDbBlockEnd
  0
BLOCK
  5
435
330
434
100
AcDbEntity
  8
0
100
AcDbBlockBegin
  2
SW_NOTE_5
 70
     0
 10
0.0
 20
0.0
 30
0.0
  3
SW_NOTE_5
  1

  0
MTEXT
  5
437
330
434
100
AcDbEntity
  8
5
 62
     0
100
AcDbMText
 10
0.0
 20
4.092790073775984
 30
0.0
 40
3.174999999999999
 41
0.0
 71
     1
 72
     1
  1
DETAIL B 
  7
SLDTEXTSTYLE0
 73
     1
 44
1.0
1001
ACAD
1000
MTEXTBEGIN
1070
    73
1070
     1
1070
    44
1040
1.0
1070
    74
1070
     0
1000
MTEXTEND
  0
MTEXT
  5
438
330
434
100
AcDbEntity
  8
5
 62
     0
100
AcDbMText
 10
-2.822221256792545
 20
-0.1405432083966957
 30
0.0
 40
3.174999999999999
 41
0.0
 71
     1
 72
     1
  1
SCALE 40 : 1
  7
SLDTEXTSTYLE0
 73
     1
 44
1.0
1001
ACAD
1000
MTEXTBEGIN
1070
    73
1070
     1
1070
    44
1040
1.0
1070
    74
1070
     0
1000
MTEXTEND
  0
ENDBLK
  5
436
330
434
100
AcDbEntity
  8
0
100
AcDbBlockEnd
  0
ENDSEC
  0
SECTION
  2
ENTITIES
  0
IMAGE
  5
4B
330
1F
100
AcDbEntity
  8
Titleblock
 92
      140
310
8C00000001000000840000000600000005000000BA2D2CD94BF92640426539CBEE5DF73F0000000000000000BA2D2CD94BF926402B07E197C7B3FF3F0000000000000000211ACF03D9B528402B07E197C7B3FF3F0000000000000000211ACF03D9B52840426539CBEE5DF73F0000000000000000BA2D2CD94BF92640426539
310
CBEE5DF73F0000000000000000
100
AcDbRasterImage
 90
        0
 10
11.48690680183687
 20
1.46043280968145
 30
0.0
 11
0.0005530347231167
 21
0.0
 31
0.0
 12
0.0
 22
0.0005530347231167
 32
0.0
 13
1570.0
 23
942.0
340
4A
 70
     7
280
     0
281
    50
282
    50
283
     0
360
4C
 71
     1
 91
        2
 14
-0.5
 24
-0.5
 14
1569.5
 24
941.5
  0
LINE
  5
4D
330
1F
100
AcDbEntity
  8
Titleblock
100
AcDbLine
 10
10.30233400607522
 20
1.984866921018816
 30
0.0
 11
13.62663020037903
 21
1.984866921018816
 31
0.0
  0
LINE
  5
4E
330
1F
100
AcDbEntity
  8
Titleblock
100
AcDbLine
 10
13.62663020037903
 20
1.984866921018816
 30
0.0
 11
13.62663020037903
 21
0.3226489738653498
 31
0.0
  0
LINE
  5
4F
330
1F
100
AcDbEntity
  8
Titleblock
100
AcDbLine
 10
12.41779591335948
 20
0.5492703189307317
 30
0.0
 11
12.41779591335948
 21
0.3226489738653498
 31
0.0
  0
LINE
  5
50
330
1F
100
AcDbEntity
  8
Titleblock
100
AcDbLine
 10
11.58577698476241
 20
1.002653979064646
 30
0.0
 11
11.58577698476241
 21
0.5492703189307317
 31
0.0
  0
LINE
  5
51
330
1F
100
AcDbEntity
  8
Titleblock
100
AcDbLine
 10
13.00107644639681
 20
1.005032689117815
 30
0.0
 11
13.00107644639681
 21
0.5537496090308517
 31
0.0
  0
LINE
  5
52
330
1F
100
AcDbEntity
  8
Titleblock
100
AcDbLine
 10
11.16325813531838
 20
1.002653979064646
 30
0.0
 11
11.16325813531838
 21
0.5492703189307317
 31
0.0
  0
LINE
  5
53
330
1F
100
AcDbEntity
  8
Titleblock
100
AcDbLine
 10
10.30233400607522
 20
1.984866921018816
 30
0.0
 11
10.30233400607522
 21
0.3226489738653498
 31
0.0
  0
LINE
  5
54
330
1F
100
AcDbEntity
  8
Titleblock
100
AcDbLine
 10
13.62663020037903
 20
0.5492703189307317
 30
0.0
 11
10.30233400607522
 21
0.5492703189307317
 31
0.0
  0
LINE
  5
55
330
1F
100
AcDbEntity
  8
Titleblock
100
AcDbLine
 10
10.30233400607522
 20
1.002653979064646
 30
0.0
 11
13.62663020037903
 21
1.002653979064646
 31
0.0
  0
LINE
  5
56
330
1F
100
AcDbEntity
  8
Titleblock
100
AcDbLine
 10
13.62663020037903
 20
1.45589666919541
 30
0.0
 11
10.30233400607522
 21
1.45589666919541
 31
0.0
  0
LINE
  5
57
330
1F
100
AcDbEntity
  8
Titleblock
100
AcDbLine
 10
8.489082575545896
 20
0.3226489738653498
 30
0.0
 11
13.62663020037903
 21
0.3226489738653498
 31
0.0
  0
LINE
  5
58
330
1F
100
AcDbEntity
  8
Titleblock
100
AcDbLine
 10
13.62663020037903
 20
0.3226489738653498
 30
0.0
 11
0.2916299023185504
 21
0.3226489738653498
 31
0.0
  0
LINE
  5
59
330
1F
100
AcDbEntity
  8
Titleblock
100
AcDbLine
 10
13.62663020037903
 20
10.48264920095905
 30
0.0
 11
13.62663020037903
 21
0.3226489738653498
 31
0.0
  0
LINE
  5
5A
330
1F
100
AcDbEntity
  8
Titleblock
100
AcDbLine
 10
0.2916299023185504
 20
10.48264920095905
 30
0.0
 11
13.62663020037903
 21
10.48264920095905
 31
0.0
  0
LINE
  5
5B
330
1F
100
AcDbEntity
  8
Titleblock
100
AcDbLine
 10
0.2916299023185504
 20
0.3226489738653498
 30
0.0
 11
0.2916299023185504
 21
10.48264920095905
 31
0.0
  0
MTEXT
  5
99
330
1F
100
AcDbEntity
  8
Titleblock
100
AcDbMText
 10
10.66036860407791
 20
0.46790932602689
 30
0.0
 40
0.0805180017997176
 41
0.0
 71
     1
 72
     1
  1
DO NOT SCALE DRAWING
  7
SLDTEXTSTYLE1
 73
     1
 44
1.0
1001
ACAD
1000
MTEXTBEGIN
1070
    73
1070
     1
1070
    44
1040
1.0
1070
    74
1070
     0
1000
MTEXTEND
  0
MTEXT
  5
9A
330
1F
100
AcDbEntity
  8
Titleblock
100
AcDbMText
 10
11.33162076908157
 20
0.795496050741199
 30
0.0
 40
0.1052931623534856
 41
0.0
 71
     1
 72
     1
  1
A
  7
SLDTEXTSTYLE1
 73
     1
 44
1.0
1001
ACAD
1000
MTEXTBEGIN
1070
    73
1070
     1
1070
    44
1040
1.0
1070
    74
1070
     0
1000
MTEXTEND
  0
MTEXT
  5
9B
330
1F
100
AcDbEntity
  8
Titleblock
100
AcDbMText
 10
11.24771440720612
 20
0.9618301170668795
 30
0.0
 40
0.0805180017997176
 41
0.0
 71
     1
 72
     1
  1
SIZE
  7
SLDTEXTSTYLE1
 73
     1
 44
1.0
1001
ACAD
1000
MTEXTBEGIN
1070
    73
1070
     1
1070
    44
1040
1.0
1070
    74
1070
     0
1000
MTEXTEND
  0
MTEXT
  5
9C
330
1F
100
AcDbEntity
  8
Titleblock
100
AcDbMText
 10
13.02373451690326
 20
0.9664897471710304
 30
0.0
 40
0.0805180017997176
 41
0.0
 71
     1
 72
     1
  1
REV
  7
SLDTEXTSTYLE1
 73
     1
 44
1.0
1001
ACAD
1000
MTEXTBEGIN
1070
    73
1070
     1
1070
    44
1040
1.0
1070
    74
1070
     0
1000
MTEXTEND
  0
MTEXT
  5
9D
330
1F
100
AcDbEntity
  8
Titleblock
100
AcDbMText
 10
11.87701212127202
 20
0.9711493772751806
 30
0.0
 40
0.0805180017997176
 41
0.0
 71
     1
 72
     1
  1
DRAWING NO.
  7
SLDTEXTSTYLE1
 73
     1
 44
1.0
1001
ACAD
1000
MTEXTBEGIN
1070
    73
1070
     1
1070
    44
1040
1.0
1070
    74
1070
     0
1000
MTEXTEND
  0
MTEXT
  5
9E
330
1F
100
AcDbEntity
  8
Titleblock
100
AcDbMText
 10
10.33872712688867
 20
1.409155877065389
 30
0.0
 40
0.0805180017997176
 41
0.0
 71
     1
 72
     1
  1
TITLE
  7
SLDTEXTSTYLE1
 73
     1
 44
1.0
1001
ACAD
1000
MTEXTBEGIN
1070
    73
1070
     1
1070
    44
1040
1.0
1070
    74
1070
     0
1000
MTEXTEND
  0
MTEXT
  5
9F
330
1F
100
AcDbEntity
  8
Titleblock
100
AcDbMText
 10
10.85818937897273
 20
1.210677433589683
 30
0.0
 40
0.1322916696236159
 41
0.0
 71
     1
 72
     1
  1
M-QFN CAVITY PACKAGE
  7
SLDTEXTSTYLE0
 73
     1
 44
1.0
1001
ACAD
1000
MTEXTBEGIN
1070
    73
1070
     1
1070
    44
1040
1.0
1070
    74
1070
     0
1000
MTEXTEND
  0
MTEXT
  5
A1
330
1F
100
AcDbEntity
  8
Titleblock
100
AcDbMText
 10
13.14082269269711
 20
0.4733037220857705
 30
0.0
 40
0.066145834811808
 41
0.0
 71
     1
 72
     1
  1
OF  4
  7
SLDTEXTSTYLE2
 73
     1
 44
1.0
1001
ACAD
1000
MTEXTBEGIN
1070
    73
1070
     1
1070
    44
1040
1.0
1070
    74
1070
     0
1000
MTEXTEND
  0
MTEXT
  5
A2
330
1F
100
AcDbEntity
  8
Titleblock
100
AcDbMText
 10
12.62971716650479
 20
0.4710531982750437
 30
0.0
 40
0.066145834811808
 41
0.0
 71
     1
 72
     1
  1
SHEET  4
  7
SLDTEXTSTYLE0
 73
     1
 44
1.0
1001
ACAD
1000
MTEXTBEGIN
1070
    73
1070
     1
1070
    44
1040
1.0
1070
    74
1070
     0
1000
MTEXTEND
  0
MTEXT
  5
A9
330
1F
100
AcDbEntity
  8
Titleblock
100
AcDbMText
 10
10.93708029665616
 20
1.420178623945921
 30
0.0
 40
0.1322916696236159
 41
0.0
 71
     1
 72
     1
  1
32-LEAD 5mm P=0.5 mm
  7
SLDTEXTSTYLE0
 73
     1
 44
1.0
1001
ACAD
1000
MTEXTBEGIN
1070
    73
1070
     1
1070
    44
1040
1.0
1070
    74
1070
     0
1000
MTEXTEND
  0
MTEXT
  5
AA
330
1F
100
AcDbEntity
  8
Titleblock
100
AcDbMText
 10
13.27224258262672
 20
0.7954244087942143
 30
0.0
 40
0.1058333356988927
 41
0.0
 71
     1
 72
     1
  1
A
  7
SLDTEXTSTYLE0
 73
     1
 44
1.0
1001
ACAD
1000
MTEXTBEGIN
1070
    73
1070
     1
1070
    44
1040
1.0
1070
    74
1070
     0
1000
MTEXTEND
  0
MTEXT
  5
AB
330
1F
100
AcDbEntity
  8
Titleblock
100
AcDbMText
 10
12.06516335420312
 20
0.7858310580278636
 30
0.0
 40
0.1058333356988927
 41
0.0
 71
     1
 72
     1
  1
453250
  7
SLDTEXTSTYLE0
 73
     1
 44
1.0
1001
ACAD
1000
MTEXTBEGIN
1070
    73
1070
     1
1070
    44
1040
1.0
1070
    74
1070
     0
1000
MTEXTEND
  0
LINE
  5
AC
330
1F
100
AcDbEntity
  8
PCB_Soldermask
100
AcDbLine
 10
3.634743290248843
 20
5.084305714578957
 30
0.0
 11
6.834743280935617
 21
5.084305714578957
 31
0.0
  0
LINE
  5
AD
330
1F
100
AcDbEntity
  8
PCB_Soldermask
100
AcDbLine
 10
3.634743290248843
 20
8.284305705265731
 30
0.0
 11
3.634743290248843
 21
5.084305714578957
 31
0.0
  0
LINE
  5
AE
330
1F
100
AcDbEntity
  8
PCB_Soldermask
100
AcDbLine
 10
6.834743280935617
 20
8.284305705265731
 30
0.0
 11
3.634743290248843
 21
8.284305705265731
 31
0.0
  0
LINE
  5
AF
330
1F
100
AcDbEntity
  8
PCB_Soldermask
100
AcDbLine
 10
6.834743280935617
 20
5.084305714578957
 30
0.0
 11
6.834743280935617
 21
8.284305705265731
 31
0.0
  0
LINE
  5
134
330
1F
100
AcDbEntity
  8
QFN_Bottom
100
AcDbLine
 10
6.950198295353422
 20
6.219350703979575
 30
0.0
 11
6.950198295353422
 21
5.649350658344768
 31
0.0
  0
LINE
  5
135
330
1F
100
AcDbEntity
  8
QFN_Bottom
100
AcDbLine
 10
6.950198295353422
 20
4.968850700161152
 30
0.0
 11
6.449748256992244
 21
4.968850700161152
 31
0.0
  0
LINE
  5
136
330
1F
100
AcDbEntity
  8
QFN_Bottom
100
AcDbLine
 10
5.520153294078442
 20
4.968850700161152
 30
0.0
 11
4.949748268633777
 21
4.968850700161152
 31
0.0
  0
LINE
  5
137
330
1F
100
AcDbEntity
  8
QFN_Bottom
100
AcDbLine
 10
6.950198295353422
 20
5.46935068069651
 30
0.0
 11
6.950198295353422
 21
4.968850700161152
 31
0.0
  0
LINE
  5
138
330
1F
100
AcDbEntity
  8
QFN_Bottom
100
AcDbLine
 10
3.519288275831038
 20
7.734760763455699
 30
0.0
 11
3.534743225056262
 21
7.750215712680922
 31
0.0
  0
LINE
  5
139
330
1F
100
AcDbEntity
  8
QFN_Bottom
100
AcDbLine
 10
4.168833282833653
 20
8.384305770458313
 30
0.0
 11
4.184288232058876
 21
8.399760719683536
 31
0.0
  0
LINE
  5
13A
330
1F
100
AcDbEntity
  8
QFN_Bottom
100
AcDbLine
 10
6.269748279343987
 20
4.968850700161152
 30
0.0
 11
5.700153300830531
 21
4.968850700161152
 31
0.0
  0
LINE
  5
13B
330
1F
100
AcDbEntity
  8
QFN_Bottom
100
AcDbLine
 10
6.950198295353422
 20
7.719350750545705
 30
0.0
 11
6.950198295353422
 21
7.149719712385507
 31
0.0
  0
LINE
  5
13C
330
1F
100
AcDbEntity
  8
QFN_Bottom
100
AcDbLine
 10
4.020198271139035
 20
4.968850700161152
 30
0.0
 11
3.519288275831038
 21
4.968850700161152
 31
0.0
  0
LINE
  5
13D
330
1F
100
AcDbEntity
  8
QFN_Bottom
100
AcDbLine
 10
4.769748261881688
 20
4.968850700161152
 30
0.0
 11
4.200198248787293
 21
4.968850700161152
 31
0.0
  0
LINE
  5
13E
330
1F
100
AcDbEntity
  8
QFN_Bottom
100
AcDbLine
 10
6.950198295353422
 20
6.969719705633417
 30
0.0
 11
6.950198295353422
 21
6.399350710731663
 31
0.0
  0
LINE
  5
13F
330
1F
100
AcDbEntity
  8
QFN_Bottom
100
AcDbLine
 10
6.950198295353422
 20
8.399760719683536
 30
0.0
 11
6.950198295353422
 21
7.899350728193963
 31
0.0
  0
LINE
  5
140
330
1F
100
AcDbEntity
  8
QFN_Bottom
100
AcDbLine
 10
6.449748256992244
 20
8.399760719683536
 30
0.0
 11
6.950198295353422
 21
8.399760719683536
 31
0.0
  0
LINE
  5
141
330
1F
100
AcDbEntity
  8
QFN_Bottom
100
AcDbLine
 10
5.700153300830531
 20
8.399760719683536
 30
0.0
 11
6.269748279343987
 21
8.399760719683536
 31
0.0
  0
LINE
  5
142
330
1F
100
AcDbEntity
  8
QFN_Bottom
100
AcDbLine
 10
4.184288232058876
 20
8.399760719683536
 30
0.0
 11
4.769748261881688
 21
8.399760719683536
 31
0.0
  0
LINE
  5
143
330
1F
100
AcDbEntity
  8
QFN_Bottom
100
AcDbLine
 10
4.949748268633777
 20
8.399760719683536
 30
0.0
 11
5.520153294078442
 21
8.399760719683536
 31
0.0
  0
LINE
  5
144
330
1F
100
AcDbEntity
  8
QFN_Bottom
100
AcDbLine
 10
3.519288275831038
 20
7.149719712385507
 30
0.0
 11
3.519288275831038
 21
7.734760763455699
 31
0.0
  0
LINE
  5
145
330
1F
100
AcDbEntity
  8
QFN_Bottom
100
AcDbLine
 10
3.519288275831038
 20
6.399350710731663
 30
0.0
 11
3.519288275831038
 21
6.969719705633417
 31
0.0
  0
LINE
  5
146
330
1F
100
AcDbEntity
  8
QFN_Bottom
100
AcDbLine
 10
3.519288275831038
 20
5.649350658344768
 30
0.0
 11
3.519288275831038
 21
6.219350703979575
 31
0.0
  0
LINE
  5
147
330
1F
100
AcDbEntity
  8
QFN_Bottom
100
AcDbLine
 10
3.519288275831038
 20
4.968850700161152
 30
0.0
 11
3.519288275831038
 21
5.46935068069651
 31
0.0
  0
LINE
  5
158
330
1F
100
AcDbEntity
  8
QFN_Outline
100
AcDbLine
 10
7.73474328559223
 20
9.184305709922345
 30
0.0
 11
7.73474328559223
 21
4.184305709922345
 31
0.0
  0
LINE
  5
159
330
1F
100
AcDbEntity
  8
QFN_Outline
100
AcDbLine
 10
7.73474328559223
 20
4.184305709922345
 30
0.0
 11
2.73474328559223
 21
4.184305709922345
 31
0.0
  0
LINE
  5
16A
330
1F
100
AcDbEntity
  8
QFN_Outline
100
AcDbLine
 10
2.73474328559223
 20
4.184305709922345
 30
0.0
 11
2.73474328559223
 21
9.184305709922345
 31
0.0
  0
LINE
  5
16B
330
1F
100
AcDbEntity
  8
QFN_Outline
100
AcDbLine
 10
2.73474328559223
 20
9.184305709922345
 30
0.0
 11
7.73474328559223
 21
9.184305709922345
 31
0.0
  0
LINE
  5
1F4
330
1F
100
AcDbEntity
  8
QFN_Bottom
100
AcDbLine
 10
3.534743225056262
 20
7.750215712680922
 30
0.0
 11
4.168833282833653
 21
8.384305770458313
 31
0.0
  0
LINE
  5
2BD
330
1F
100
AcDbEntity
  8
QFN_Bottom
100
AcDbLine
 10
6.950198295353422
 20
7.149719712385507
 30
0.0
 11
6.950198295353422
 21
6.969719705633417
 31
0.0
  0
LINE
  5
2BE
330
1F
100
AcDbEntity
  8
QFN_Bottom
100
AcDbLine
 10
4.200198248787293
 20
4.968850700161152
 30
0.0
 11
4.020198271139035
 21
4.968850700161152
 31
0.0
  0
LINE
  5
2BF
330
1F
100
AcDbEntity
  8
QFN_Bottom
100
AcDbLine
 10
6.269748279343987
 20
8.399760719683536
 30
0.0
 11
6.449748256992244
 21
8.399760719683536
 31
0.0
  0
LINE
  5
2C0
330
1F
100
AcDbEntity
  8
QFN_Bottom
100
AcDbLine
 10
5.520153294078442
 20
8.399760719683536
 30
0.0
 11
5.700153300830531
 21
8.399760719683536
 31
0.0
  0
LINE
  5
2C1
330
1F
100
AcDbEntity
  8
QFN_Bottom
100
AcDbLine
 10
4.949748268633777
 20
4.968850700161152
 30
0.0
 11
4.769748261881688
 21
4.968850700161152
 31
0.0
  0
LINE
  5
2C2
330
1F
100
AcDbEntity
  8
QFN_Bottom
100
AcDbLine
 10
5.700153300830531
 20
4.968850700161152
 30
0.0
 11
5.520153294078442
 21
4.968850700161152
 31
0.0
  0
LINE
  5
2C3
330
1F
100
AcDbEntity
  8
QFN_Bottom
100
AcDbLine
 10
6.950198295353422
 20
5.649350658344768
 30
0.0
 11
6.950198295353422
 21
5.46935068069651
 31
0.0
  0
LINE
  5
2C4
330
1F
100
AcDbEntity
  8
QFN_Bottom
100
AcDbLine
 10
6.950198295353422
 20
6.399350710731663
 30
0.0
 11
6.950198295353422
 21
6.219350703979575
 31
0.0
  0
LINE
  5
2C5
330
1F
100
AcDbEntity
  8
QFN_Bottom
100
AcDbLine
 10
6.950198295353422
 20
7.899350728193963
 30
0.0
 11
6.950198295353422
 21
7.719350750545705
 31
0.0
  0
LINE
  5
2C6
330
1F
100
AcDbEntity
  8
QFN_Bottom
100
AcDbLine
 10
4.769748261881688
 20
8.399760719683536
 30
0.0
 11
4.949748268633777
 21
8.399760719683536
 31
0.0
  0
LINE
  5
2C7
330
1F
100
AcDbEntity
  8
QFN_Bottom
100
AcDbLine
 10
3.519288275831038
 20
6.219350703979575
 30
0.0
 11
3.519288275831038
 21
6.399350710731663
 31
0.0
  0
LINE
  5
2C8
330
1F
100
AcDbEntity
  8
QFN_Bottom
100
AcDbLine
 10
3.519288275831038
 20
5.46935068069651
 30
0.0
 11
3.519288275831038
 21
5.649350658344768
 31
0.0
  0
LINE
  5
2C9
330
1F
100
AcDbEntity
  8
QFN_Bottom
100
AcDbLine
 10
6.449748256992244
 20
4.968850700161152
 30
0.0
 11
6.269748279343987
 21
4.968850700161152
 31
0.0
  0
LINE
  5
2CA
330
1F
100
AcDbEntity
  8
QFN_Bottom
100
AcDbLine
 10
3.519288275831038
 20
6.969719705633417
 30
0.0
 11
3.519288275831038
 21
7.149719712385507
 31
0.0
  0
LINE
  5
30B
330
1F
100
AcDbEntity
  8
Dimensions
100
AcDbLine
 10
5.23474328559224
 20
9.507934581234524
 30
0.0
 11
5.23474328559222
 21
3.820240489520399
 31
0.0
  0
LINE
  5
30C
330
1F
100
AcDbEntity
  8
Dimensions
100
AcDbLine
 10
2.334087069434748
 20
6.684305709922355
 30
0.0
 11
8.192304709597973
 21
6.684305709922334
 31
0.0
  0
LINE
  5
30D
330
1F
100
AcDbEntity
  8
Dimensions
100
AcDbLine
 10
3.253251678080794
 20
8.434305749037893
 30
0.0
 11
2.3391117838773
 21
8.434305749037896
 31
0.0
  0
LINE
  5
30E
330
1F
100
AcDbEntity
  8
Dimensions
100
AcDbLine
 10
3.248226963638248
 20
7.934305737862022
 30
0.0
 11
2.334087069434753
 21
7.934305737862025
 31
0.0
  0
LINE
  5
30F
330
1F
100
AcDbEntity
  8
Dimensions
100
AcDbLine
 10
3.248226963638243
 20
4.934305670806796
 30
0.0
 11
2.334087069434748
 21
4.934305670806798
 31
0.0
  0
LINE
  5
310
330
1F
100
AcDbEntity
  8
Dimensions
100
AcDbLine
 10
3.484743246476688
 20
8.661538196927201
 30
0.0
 11
3.48474324647669
 21
9.507934581234531
 31
0.0
  0
LINE
  5
311
330
1F
100
AcDbEntity
  8
Dimensions
100
AcDbLine
 10
6.984743324707786
 20
8.661538196927189
 30
0.0
 11
6.984743324707789
 21
9.50793458123452
 31
0.0
  0
LEADER
  5
393
330
1F
100
AcDbEntity
  8
Dimensions
100
AcDbLeader
  3
SLDDIMSTYLE5
 76
     3
 10
7.734743341471578
 20
4.586987343298717
 30
0.0
 10
8.566425097565891
 20
4.781336850018415
 30
0.0
 10
8.883925104662569
 20
4.781336850018415
 30
0.0
  0
LEADER
  5
395
330
1F
100
AcDbEntity
  8
Dimensions
100
AcDbLeader
  3
SLDDIMSTYLE5
 76
     3
 10
7.964361078514264
 20
7.619305730821205
 30
0.0
 10
8.327315294251828
 20
8.05364226021598
 30
0.0
 10
8.644815301348506
 20
8.05364226021598
 30
0.0
  0
LEADER
  5
3A2
330
1F
100
AcDbEntity
  8
Dimensions
100
AcDbLeader
  3
SLDDIMSTYLE6
 76
     3
 10
7.841802710244532
 20
7.436608280257865
 30
0.0
 10
8.403441418716617
 20
7.399024678071446
 30
0.0
 10
8.720941425813295
 20
7.399024678071446
 30
0.0
  0
LEADER
  5
3A4
330
1F
100
AcDbEntity
  8
Dimensions
100
AcDbLeader
  3
SLDDIMSTYLE5
 76
     3
 10
6.834743321355016
 20
6.324740695933494
 30
0.0
 10
8.177969533465502
 20
5.930047620871769
 30
0.0
 10
8.495469540562179
 20
5.930047620871769
 30
0.0
  0
LEADER
  5
3AC
330
1F
100
AcDbEntity
  8
Dimensions
100
AcDbLeader
  3
SLDDIMSTYLE5
 76
     3
 10
6.950198323935639
 20
6.774305711933996
 30
0.0
 10
8.327315294251828
 20
7.014369777087951
 30
0.0
 10
8.644815301348506
 20
7.014369777087951
 30
0.0
  0
LEADER
  5
3AE
330
1F
100
AcDbEntity
  8
Dimensions
100
AcDbLeader
  3
SLDDIMSTYLE6
 76
     3
 10
6.586484129959087
 20
5.275080273637673
 30
0.0
 10
8.319490289000784
 20
5.515881271512905
 30
0.0
 10
8.636990296097462
 20
5.515881271512905
 30
0.0
  0
CIRCLE
  5
3AF
330
1F
100
AcDbEntity
  8
Detail
100
AcDbCircle
 10
5.725753254295858
 20
4.235922609544286
 30
0.0
 40
0.5483927056453929
  0
LEADER
  5
3B4
330
1F
100
AcDbEntity
  8
Detail
100
AcDbLeader
  3
SLDDIMSTYLE7
 71
     0
 76
     3
 10
6.227149540100595
 20
4.013804793540504
 30
0.0
 10
6.446854746636504
 20
3.775823675259178
 30
0.0
 10
6.764354753733182
 20
3.775823675259178
 30
0.0
  0
MTEXT
  5
3B5
330
1F
100
AcDbEntity
  8
Detail
100
AcDbMText
 10
6.789354754291974
 20
3.88157303193758
 30
-0.0000000000000279
 40
0.2116666713977854
 41
0.0
 71
     1
 72
     1
  1
B
  7
SLDTEXTSTYLE0
 73
     1
 44
1.0
1001
ACAD
1000
MTEXTBEGIN
1070
    73
1070
     1
1070
    44
1040
1.0
1070
    74
1070
     0
1000
MTEXTEND
  0
ARC
  5
3B6
330
1F
100
AcDbEntity
  8
Detail
100
AcDbCircle
 10
11.4758461719993
 20
3.329837734164734
 30
0.0
 40
1.096785411540044
100
AcDbArc
 50
359.9999979571948
 51
185.4009010023237
  0
ARC
  5
3B7
330
1F
100
AcDbEntity
  8
Detail
100
AcDbCircle
 10
11.47585227170195
 20
3.32983686525828
 30
0.0
 40
1.096779311837702
100
AcDbArc
 50
354.5991144655716
 51
0.0000433488781592
  0
ARC
  5
3B8
330
1F
100
AcDbEntity
  8
Detail
100
AcDbCircle
 10
11.99382627857682
 20
3.776603761166681
 30
0.0
 40
0.3700000316649683
100
AcDbArc
 50
0.0
 51
180.0
  0
LINE
  5
3B9
330
1F
100
AcDbEntity
  8
Detail
100
AcDbLine
 10
12.36382626367566
 20
2.706603319719771
 30
0.0
 11
12.36382626367566
 21
3.776603574902162
 31
0.0
  0
LINE
  5
3BA
330
1F
100
AcDbEntity
  8
Detail
100
AcDbLine
 10
11.62382620034573
 20
2.706603319719771
 30
0.0
 11
12.36382626367566
 21
2.706603319719771
 31
0.0
  0
LINE
  5
3BB
330
1F
100
AcDbEntity
  8
Detail
100
AcDbLine
 10
11.62382620034573
 20
3.776603574902162
 30
0.0
 11
11.62382620034573
 21
2.706603319719771
 31
0.0
  0
LINE
  5
3BC
330
1F
100
AcDbEntity
  8
Detail
100
AcDbLine
 10
11.36382626367566
 20
2.706603319719771
 30
0.0
 11
11.36382626367566
 21
3.776603574902162
 31
0.0
  0
LINE
  5
3BD
330
1F
100
AcDbEntity
  8
Detail
100
AcDbLine
 10
10.62382623527032
 20
2.706603319719771
 30
0.0
 11
11.36382626367566
 21
2.706603319719771
 31
0.0
  0
ARC
  5
3BE
330
1F
100
AcDbEntity
  8
Detail
100
AcDbCircle
 10
10.99382623783146
 20
3.776603790270512
 30
0.0
 40
0.3700000025611383
100
AcDbArc
 50
359.9999954931721
 51
180.0000045068295
  0
LINE
  5
3BF
330
1F
100
AcDbEntity
  8
Detail
100
AcDbLine
 10
10.62382623527032
 20
3.776603574902162
 30
0.0
 11
10.62382623527032
 21
2.706603319719771
 31
0.0
  0
LINE
  5
3C0
330
1F
100
AcDbEntity
  8
Detail
100
AcDbLine
 10
12.5677624427459
 20
3.226603938117974
 30
0.0
 11
12.36382626367566
 21
3.226603938117974
 31
0.0
  0
LINE
  5
3C1
330
1F
100
AcDbEntity
  8
Detail
100
AcDbLine
 10
11.62382620034573
 20
3.226603938117974
 30
0.0
 11
11.36382626367566
 21
3.226603938117974
 31
0.0
  0
LINE
  5
3C2
330
1F
100
AcDbEntity
  8
Detail
100
AcDbLine
 10
10.62382623527032
 20
3.226603938117974
 30
0.0
 11
10.38392995620212
 21
3.226603938117974
 31
0.0
  0
LINE
  5
3C3
330
1F
100
AcDbEntity
  8
Detail
100
AcDbLine
 10
12.24382627857682
 20
3.776603574902162
 30
0.0
 11
12.24382627857682
 21
2.826603491083129
 31
0.0
  0
LINE
  5
3C4
330
1F
100
AcDbEntity
  8
Detail
100
AcDbLine
 10
11.74382618544457
 20
2.826603491083129
 30
0.0
 11
11.74382618544457
 21
3.776603574902162
 31
0.0
  0
LINE
  5
3C5
330
1F
100
AcDbEntity
  8
Detail
100
AcDbLine
 10
12.24382627857682
 20
2.826603491083129
 30
0.0
 11
11.74382618544457
 21
2.826603491083129
 31
0.0
  0
ARC
  5
3C6
330
1F
100
AcDbEntity
  8
Detail
100
AcDbCircle
 10
11.99382627857682
 20
3.776603480841489
 30
0.0
 40
0.2500000465662869
100
AcDbArc
 50
0.0000642457896647
 51
179.9999357542103
  0
LINE
  5
3C7
330
1F
100
AcDbEntity
  8
Detail
100
AcDbLine
 10
11.24382627857682
 20
3.776603574902162
 30
0.0
 11
11.24382627857682
 21
2.826603491083129
 31
0.0
  0
ARC
  5
3C8
330
1F
100
AcDbEntity
  8
Detail
100
AcDbCircle
 10
10.99382625238338
 20
3.776603521837003
 30
0.0
 40
0.2500000029104977
100
AcDbArc
 50
0.0000548503213419
 51
179.9999451496787
  0
LINE
  5
3C9
330
1F
100
AcDbEntity
  8
Detail
100
AcDbLine
 10
10.74382625529376
 20
2.826603491083129
 30
0.0
 11
10.74382625529376
 21
3.776603574902162
 31
0.0
  0
LINE
  5
3CA
330
1F
100
AcDbEntity
  8
Detail
100
AcDbLine
 10
11.24382627857682
 20
2.826603491083129
 30
0.0
 11
10.74382625529376
 21
2.826603491083129
 31
0.0
  0
LINE
  5
3CB
330
1F
100
AcDbEntity
  8
Detail
100
AcDbLine
 10
11.74382618544457
 20
3.776603574902162
 30
0.0
 11
11.74382618544457
 21
3.826593246534579
 31
0.0
  0
LINE
  5
3CC
330
1F
100
AcDbEntity
  8
Detail
100
AcDbLine
 10
12.24382627857682
 20
3.226593507304905
 30
0.0
 11
11.74382618544457
 21
3.226593507304905
 31
0.0
  0
LINE
  5
3CD
330
1F
100
AcDbEntity
  8
Detail
100
AcDbLine
 10
12.24382627857682
 20
3.827493649219843
 30
0.0
 11
12.24382627857682
 21
3.776603574902162
 31
0.0
  0
LINE
  5
3CE
330
1F
100
AcDbEntity
  8
Detail
100
AcDbLine
 10
11.94382622269747
 20
4.026593656316521
 30
0.0
 11
12.04382633445618
 21
4.026594401374596
 31
0.0
  0
ARC
  5
3CF
330
1F
100
AcDbEntity
  8
Detail
100
AcDbCircle
 10
11.94382609059738
 20
3.826593704597455
 30
0.0
 40
0.1999998585868677
100
AcDbArc
 50
89.99995548597333
 51
180.0000778645496
  0
ARC
  5
3D0
330
1F
100
AcDbEntity
  8
Detail
100
AcDbCircle
 10
12.04382613123063
 20
3.826592269814531
 30
0.0
 40
0.2000022246924082
100
AcDbArc
 50
0.2581974997494426
 51
89.99994845084913
  0
LINE
  5
3D1
330
1F
100
AcDbEntity
  8
Detail
100
AcDbLine
 10
10.74382625529376
 20
3.776603574902162
 30
0.0
 11
10.74382625529376
 21
3.826593246534579
 31
0.0
  0
LINE
  5
3D2
330
1F
100
AcDbEntity
  8
Detail
100
AcDbLine
 10
11.24382627857682
 20
3.226593507304905
 30
0.0
 11
10.74382625529376
 21
3.226593507304905
 31
0.0
  0
LINE
  5
3D3
330
1F
100
AcDbEntity
  8
Detail
100
AcDbLine
 10
11.24382627857682
 20
3.826593246534579
 30
0.0
 11
11.24382627857682
 21
3.776603574902162
 31
0.0
  0
LINE
  5
3D4
330
1F
100
AcDbEntity
  8
Detail
100
AcDbLine
 10
10.94382622269747
 20
4.026593656316521
 30
0.0
 11
11.04382624132392
 21
4.026593656316521
 31
0.0
  0
ARC
  5
3D5
330
1F
100
AcDbEntity
  8
Detail
100
AcDbCircle
 10
10.94382610805964
 20
3.826593704597467
 30
0.0
 40
0.199999858586835
100
AcDbArc
 50
89.99996382360333
 51
180.0000778645529
  0
ARC
  5
3D6
330
1F
100
AcDbEntity
  8
Detail
100
AcDbCircle
 10
11.04382599677394
 20
3.826593304664553
 30
0.0
 40
0.2000002585198576
100
AcDbArc
 50
0.0000367077956785
 51
89.9999299416827
  0
LINE
  5
3D7
330
1F
100
AcDbEntity
  8
Detail
100
AcDbLine
 10
12.04382633445618
 20
4.026593656316521
 30
0.0
 11
11.94382622269747
 21
4.026593656316521
 31
0.0
  0
LINE
  5
3D8
330
1F
100
AcDbEntity
  8
Detail
100
AcDbLine
 10
12.24382627857682
 20
3.827493649219843
 30
0.0
 11
12.13909663128173
 21
4.002444833946003
 31
0.0
  0
LINE
  5
3D9
330
1F
100
AcDbEntity
  8
Detail
100
AcDbLine
 10
12.36382626367566
 20
3.226603938117974
 30
0.0
 11
12.24382627857682
 21
3.226603938117974
 31
0.0
  0
LINE
  5
3DA
330
1F
100
AcDbEntity
  8
Detail
100
AcDbLine
 10
11.74382618544457
 20
3.226603938117974
 30
0.0
 11
11.62382620034573
 21
3.226603938117974
 31
0.0
  0
LINE
  5
3DB
330
1F
100
AcDbEntity
  8
Detail
100
AcDbLine
 10
11.36382626367566
 20
3.226603938117974
 30
0.0
 11
11.24382627857682
 21
3.226603938117974
 31
0.0
  0
LINE
  5
3DC
330
1F
100
AcDbEntity
  8
Detail
100
AcDbLine
 10
10.74382625529376
 20
3.226603938117974
 30
0.0
 11
10.62382623527032
 21
3.226603938117974
 31
0.0
  0
LINE
  5
3DD
330
1F
100
AcDbEntity
  8
Detail
100
AcDbLine
 10
10.99382624318655
 20
2.55051382817863
 30
0.0
 11
10.99382624318655
 21
4.527908920046944
 31
0.0
  0
LINE
  5
3DE
330
1F
100
AcDbEntity
  8
Dimensions
100
AcDbLine
 10
11.9938262655383
 20
2.55051382817863
 30
0.0
 11
11.9938262655383
 21
4.527908920046944
 31
0.0
  0
LINE
  5
725
330
1F
100
AcDbEntity
  8
Dimensions
100
AcDbLine
 10
9.789527330064883
 20
4.167088179238438
 30
0.0
 11
10.31790260286792
 21
4.167088179238437
 31
0.0
  0
LINE
  5
726
330
1F
100
AcDbEntity
  8
Dimensions
100
AcDbLine
 10
10.31790260286792
 20
4.167088179238437
 30
0.0
 11
10.6398927428905
 21
3.981072836709675
 31
0.0
  0
MTEXT
  5
727
330
1F
100
AcDbEntity
  8
Dimensions
100
AcDbMText
 10
9.409159324329923
 20
4.244137741507505
 30
0.0
 40
0.1540991245381338
 41
0.0
 71
     1
 72
     1
  1
\A1;R.125
  7
SLDTEXTSTYLE0
 73
     1
 44
1.0
1001
ACAD
1000
MTEXTBEGIN
1070
    73
1070
     1
1070
    44
1040
1.0
1070
    74
1070
     0
1000
MTEXTEND
  0
SOLID
  5
728
330
1F
100
AcDbEntity
  8
Dimensions
100
AcDbTrace
 10
10.65312800609582
 20
4.003982905281337
 30
0.0
 11
10.62665747968519
 21
3.958162768138015
 31
0.0
 12
10.77735315432047
 22
3.901661257477787
 32
0.0
 13
10.77735315432047
 23
3.901661257477787
 33
0.0
  0
LINE
  5
729
330
1F
100
AcDbEntity
  8
Dimensions
100
AcDbLine
 10
10.98932624308597
 20
3.776603652388202
 30
0.0
 11
10.99832624328714
 21
3.776603652388202
 31
0.0
  0
LINE
  5
72A
330
1F
100
AcDbEntity
  8
Dimensions
100
AcDbLine
 10
10.99382624318655
 20
3.772103652287619
 30
0.0
 11
10.99382624318655
 21
3.781103652488785
 31
0.0
  0
TEXT
  5
72D
330
1F
100
AcDbEntity
  8
Dimensions
100
AcDbText
 10
8.662023176797097
 20
5.433431734253558
 30
0.0
 40
0.1587500035483391
  1
COMPONENT PAD
 41
0.605
  7
SLDTEXTSTYLE0
100
AcDbText
  0
MTEXT
  5
72E
330
1F
100
AcDbEntity
  8
Dimensions
100
AcDbMText
 10
8.669908450690385
 20
7.090706137192559
 30
0.0
 40
0.158750003548339
 41
0.0
 71
     1
 72
     1
  1
PCB THERMAL PAD
  7
SLDTEXTSTYLE0
 73
     1
 44
1.0
1001
ACAD
1000
MTEXTBEGIN
1070
    73
1070
     1
1070
    44
1040
1.0
1070
    74
1070
     0
1000
MTEXTEND
  0
MTEXT
  5
72F
330
1F
100
AcDbEntity
  8
Dimensions
100
AcDbMText
 10
8.699306672870056
 20
6.879039468352806
 30
0.0
 40
0.158750003548339
 41
0.0
 71
     1
 72
     1
  1
DESIGN OPTIONAL
  7
SLDTEXTSTYLE0
 73
     1
 44
1.0
1001
ACAD
1000
MTEXTBEGIN
1070
    73
1070
     1
1070
    44
1040
1.0
1070
    74
1070
     0
1000
MTEXTEND
  0
MTEXT
  5
730
330
1F
100
AcDbEntity
  8
Dimensions
100
AcDbMText
 10
8.916852874387032
 20
6.667372799513056
 30
0.0
 40
0.158750003548339
 41
0.0
 71
     1
 72
     1
  1
SEE NOTE 7&8
  7
SLDTEXTSTYLE0
 73
     1
 44
1.0
1001
ACAD
1000
MTEXTBEGIN
1070
    73
1070
     1
1070
    44
1040
1.0
1070
    74
1070
     0
1000
MTEXTEND
  0
TEXT
  5
731
330
1F
100
AcDbEntity
  8
Dimensions
100
AcDbText
 10
8.520502907621651
 20
5.847630868556502
 30
0.0
 40
0.1587500035483391
  1
SOLDER MASK OPENING
 41
0.605
  7
SLDTEXTSTYLE0
100
AcDbText
  0
TEXT
  5
732
330
1F
100
AcDbEntity
  8
Dimensions
100
AcDbText
 10
8.746017111229862
 20
7.316601439289425
 30
0.0
 40
0.1587500035483391
  1
COMPONENT PAD
 41
0.605
  7
SLDTEXTSTYLE0
100
AcDbText
  0
SOLID
  5
733
330
1F
100
AcDbEntity
  8
Dimensions
100
AcDbTrace
 10
8.090249398697478
 20
7.53059984339974
 30
0.0
 11
7.934743345941942
 21
7.489133295230612
 31
0.0
 12
8.068395055899083
 22
7.578792803851852
 32
0.0
 13
8.068395055899083
 23
7.578792803851852
 33
0.0
  0
LWPOLYLINE
  5
734
330
1F
100
AcDbEntity
  8
Dimensions
100
AcDbPolyline
 90
        3
 70
     0
 43
0.0
 10
8.07932222729828
 20
7.554696323625796
 10
8.685588748960372
 20
7.829623538457503
 10
9.003088756057049
 20
7.829623538457503
  0
TEXT
  5
735
330
1F
100
AcDbEntity
  8
Dimensions
100
AcDbText
 10
9.028121958343367
 20
7.747130763359298
 30
0.0
 40
0.1587500035483391
  1
PCB PAD
 41
0.605
  7
SLDTEXTSTYLE0
100
AcDbText
  0
TEXT
  5
736
330
1F
100
AcDbEntity
  8
Dimensions
100
AcDbText
 10
8.669908450690385
 20
7.971145510700837
 30
0.0
 40
0.1587500035483391
  1
SOLDER MASK OPENING
 41
0.605
  7
SLDTEXTSTYLE0
100
AcDbText
  0
MTEXT
  5
737
330
1F
100
AcDbEntity
  8
Dimensions
100
AcDbMText
 10
8.908967647059872
 20
4.857674642074823
 30
0.0
 40
0.158750003548339
 41
0.0
 71
     1
 72
     1
  1
COMPONENT
  7
SLDTEXTSTYLE0
 73
     1
 44
1.0
1001
ACAD
1000
MTEXTBEGIN
1070
    73
1070
     1
1070
    44
1040
1.0
1070
    74
1070
     0
1000
MTEXTEND
  0
MTEXT
  5
738
330
1F
100
AcDbEntity
  8
Dimensions
100
AcDbMText
 10
9.138273193328075
 20
4.646007973235071
 30
0.0
 40
0.158750003548339
 41
0.0
 71
     1
 72
     1
  1
OUTLINE
  7
SLDTEXTSTYLE0
 73
     1
 44
1.0
1001
ACAD
1000
MTEXTBEGIN
1070
    73
1070
     1
1070
    44
1040
1.0
1070
    74
1070
     0
1000
MTEXTEND
  0
LINE
  5
739
330
1F
100
AcDbEntity
  8
Dimensions
100
AcDbLine
 10
6.837868321424861
 20
5.084305674159551
 30
0.0
 11
11.39427035794364
 21
5.08430567415955
 31
0.0
  0
LINE
  5
73A
330
1F
100
AcDbEntity
  8
Dimensions
100
AcDbLine
 10
6.837868321424872
 20
8.284305745685127
 30
0.0
 11
11.39427035794364
 21
8.284305745685125
 31
0.0
  0
LINE
  5
73B
330
1F
100
AcDbEntity
  8
Dimensions
100
AcDbLine
 10
11.39427035794364
 20
5.243055677707888
 30
0.0
 11
11.39427035794364
 21
6.877229913802649
 31
0.0
  0
LINE
  5
73C
330
1F
100
AcDbEntity
  8
Dimensions
100
AcDbLine
 10
11.39427035794364
 20
8.125555742136786
 30
0.0
 11
11.39427035794364
 21
7.108378600609849
 31
0.0
  0
SOLID
  5
73D
330
1F
100
AcDbEntity
  8
Dimensions
100
AcDbTrace
 10
11.36781202401892
 20
5.243055677707888
 30
0.0
 11
11.42072869186836
 21
5.243055677707888
 31
0.0
 12
11.39427035794364
 22
5.08430567415955
 32
0.0
 13
11.39427035794364
 23
5.08430567415955
 33
0.0
  0
SOLID
  5
73E
330
1F
100
AcDbEntity
  8
Dimensions
100
AcDbTrace
 10
11.36781202401892
 20
8.125555742136786
 30
0.0
 11
11.42072869186836
 21
8.125555742136786
 31
0.0
 12
11.39427035794364
 22
8.284305745685125
 32
0.0
 13
11.39427035794364
 23
8.284305745685125
 33
0.0
  0
MTEXT
  5
73F
330
1F
100
AcDbEntity
  8
Dimensions
100
AcDbMText
 10
11.39427035794364
 20
7.069853819475319
 30
0.0
 40
0.1540991245381338
 41
0.0
 71
     2
 72
     1
  1
\A1;3.2
  7
SLDTEXTSTYLE0
 73
     1
 44
1.0
1001
ACAD
1000
MTEXTBEGIN
1070
    73
1070
     1
1070
    44
1040
1.0
1070
    74
1070
     0
1000
MTEXTEND
  0
LINE
  5
740
330
1F
100
AcDbEntity
  8
Dimensions
100
AcDbLine
 10
6.937868323660047
 20
8.384305747920301
 30
0.0
 11
11.79474343221968
 21
8.384305747920299
 31
0.0
  0
LINE
  5
741
330
1F
100
AcDbEntity
  8
Dimensions
100
AcDbLine
 10
6.937868323660035
 20
4.984305671924377
 30
0.0
 11
11.79474343221968
 21
4.984305671924375
 31
0.0
  0
LINE
  5
742
330
1F
100
AcDbEntity
  8
Dimensions
100
AcDbLine
 10
11.79474343221968
 20
8.225555744371959
 30
0.0
 11
11.79474343221968
 21
6.67600523103287
 31
0.0
  0
LINE
  5
743
330
1F
100
AcDbEntity
  8
Dimensions
100
AcDbLine
 10
11.79474343221968
 20
5.143055675472714
 30
0.0
 11
11.79474343221968
 21
6.44485654422567
 31
0.0
  0
SOLID
  5
744
330
1F
100
AcDbEntity
  8
Dimensions
100
AcDbTrace
 10
11.76828509829496
 20
8.225555744371959
 30
0.0
 11
11.8212017661444
 21
8.225555744371959
 31
0.0
 12
11.79474343221968
 22
8.384305747920299
 32
0.0
 13
11.79474343221968
 23
8.384305747920299
 33
0.0
  0
SOLID
  5
745
330
1F
100
AcDbEntity
  8
Dimensions
100
AcDbTrace
 10
11.76828509829496
 20
5.143055675472714
 30
0.0
 11
11.8212017661444
 21
5.143055675472714
 31
0.0
 12
11.79474343221968
 22
4.984305671924375
 32
0.0
 13
11.79474343221968
 23
4.984305671924375
 33
0.0
  0
MTEXT
  5
746
330
1F
100
AcDbEntity
  8
Dimensions
100
AcDbMText
 10
11.79474343221968
 20
6.637480449898337
 30
0.0
 40
0.1540991245381338
 41
0.0
 71
     2
 72
     1
  1
\A1;3.4
  7
SLDTEXTSTYLE0
 73
     1
 44
1.0
1001
ACAD
1000
MTEXTBEGIN
1070
    73
1070
     1
1070
    44
1040
1.0
1070
    74
1070
     0
1000
MTEXTEND
  0
LINE
  5
747
330
1F
100
AcDbEntity
  8
Dimensions
100
AcDbLine
 10
11.99382626553839
 20
4.531033920116843
 30
0.0
 11
11.99382626553839
 21
4.726131899916433
 31
0.0
  0
LINE
  5
748
330
1F
100
AcDbEntity
  8
Dimensions
100
AcDbLine
 10
10.99382624318665
 20
4.531033920116843
 30
0.0
 11
10.99382624318665
 21
4.726131899916433
 31
0.0
  0
LINE
  5
749
330
1F
100
AcDbEntity
  8
Dimensions
100
AcDbLine
 10
11.83507626199005
 20
4.726131899916433
 30
0.0
 11
11.5992747941469
 21
4.726131899916433
 31
0.0
  0
LINE
  5
74A
330
1F
100
AcDbEntity
  8
Dimensions
100
AcDbLine
 10
11.15257624673499
 20
4.726131899916433
 30
0.0
 11
11.35130361957762
 21
4.726131899916433
 31
0.0
  0
SOLID
  5
74B
330
1F
100
AcDbEntity
  8
Dimensions
100
AcDbTrace
 10
11.83507626199005
 20
4.752590233841156
 30
0.0
 11
11.83507626199005
 21
4.69967356599171
 31
0.0
 12
11.99382626553839
 22
4.726131899916433
 32
0.0
 13
11.99382626553839
 23
4.726131899916433
 33
0.0
  0
SOLID
  5
74C
330
1F
100
AcDbEntity
  8
Dimensions
100
AcDbTrace
 10
11.15257624673499
 20
4.752590233841156
 30
0.0
 11
11.15257624673499
 21
4.69967356599171
 31
0.0
 12
10.99382624318665
 22
4.726131899916433
 32
0.0
 13
10.99382624318665
 23
4.726131899916433
 33
0.0
  0
MTEXT
  5
74D
330
1F
100
AcDbEntity
  8
Dimensions
100
AcDbMText
 10
11.47528920686226
 20
4.8031814621855
 30
0.0
 40
0.1540991245381338
 41
0.0
 71
     2
 72
     1
  1
\A1;.50
  7
SLDTEXTSTYLE0
 73
     1
 44
1.0
1001
ACAD
1000
MTEXTBEGIN
1070
    73
1070
     1
1070
    44
1040
1.0
1070
    74
1070
     0
1000
MTEXTEND
  0
LINE
  5
74E
330
1F
100
AcDbEntity
  8
Dimensions
100
AcDbLine
 10
12.24695127119608
 20
2.82660363115404
 30
0.0
 11
13.03089599717459
 21
2.82660363115404
 31
0.0
  0
LINE
  5
74F
330
1F
100
AcDbEntity
  8
Dimensions
100
AcDbLine
 10
12.57088744281575
 20
3.226603640094738
 30
0.0
 11
13.03089599717459
 21
3.226603640094738
 31
0.0
  0
LINE
  5
750
330
1F
100
AcDbEntity
  8
Dimensions
100
AcDbLine
 10
13.03089599717459
 20
2.667853627605701
 30
0.0
 11
13.03089599717459
 21
2.509103624057361
 31
0.0
  0
LINE
  5
751
330
1F
100
AcDbEntity
  8
Dimensions
100
AcDbLine
 10
13.03089599717459
 20
3.385353643643077
 30
0.0
 11
13.03089599717459
 21
3.544103647191416
 31
0.0
  0
SOLID
  5
752
330
1F
100
AcDbEntity
  8
Dimensions
100
AcDbTrace
 10
13.00443766324987
 20
2.667853627605701
 30
0.0
 11
13.05735433109932
 21
2.667853627605701
 31
0.0
 12
13.03089599717459
 22
2.82660363115404
 32
0.0
 13
13.03089599717459
 23
2.82660363115404
 33
0.0
  0
SOLID
  5
753
330
1F
100
AcDbEntity
  8
Dimensions
100
AcDbTrace
 10
13.00443766324987
 20
3.385353643643077
 30
0.0
 11
13.05735433109932
 21
3.385353643643077
 31
0.0
 12
13.03089599717459
 22
3.226603640094738
 32
0.0
 13
13.03089599717459
 23
3.226603640094738
 33
0.0
  0
MTEXT
  5
754
330
1F
100
AcDbEntity
  8
Dimensions
100
AcDbMText
 10
13.03089599717459
 20
3.100501495286124
 30
0.0
 40
0.1540991245381338
 41
0.0
 71
     2
 72
     1
  1
\A1;.20
  7
SLDTEXTSTYLE0
 73
     1
 44
1.0
1001
ACAD
1000
MTEXTBEGIN
1070
    73
1070
     1
1070
    44
1040
1.0
1070
    74
1070
     0
1000
MTEXTEND
  0
LINE
  5
755
330
1F
100
AcDbEntity
  8
Dimensions
100
AcDbLine
 10
11.99695126560825
 20
4.026603657976185
 30
0.0
 11
13.32869973929027
 21
4.026603657976185
 31
0.0
  0
LINE
  5
756
330
1F
100
AcDbEntity
  8
Dimensions
100
AcDbLine
 10
12.24695127119618
 20
2.82660363115409
 30
0.0
 11
13.32869973929027
 21
2.82660363115409
 31
0.0
  0
LINE
  5
757
330
1F
100
AcDbEntity
  8
Dimensions
100
AcDbLine
 10
13.32869973929027
 20
3.867853654427846
 30
0.0
 11
13.32869973929027
 21
3.756607000067939
 31
0.0
  0
LINE
  5
758
330
1F
100
AcDbEntity
  8
Dimensions
100
AcDbLine
 10
13.32869973929027
 20
2.985353634702429
 30
0.0
 11
13.32869973929027
 21
3.525458313260739
 31
0.0
  0
SOLID
  5
759
330
1F
100
AcDbEntity
  8
Dimensions
100
AcDbTrace
 10
13.30224140536555
 20
3.867853654427846
 30
0.0
 11
13.35515807321499
 21
3.867853654427846
 31
0.0
 12
13.32869973929027
 22
4.026603657976185
 32
0.0
 13
13.32869973929027
 23
4.026603657976185
 33
0.0
  0
SOLID
  5
75A
330
1F
100
AcDbEntity
  8
Dimensions
100
AcDbTrace
 10
13.30224140536555
 20
2.985353634702429
 30
0.0
 11
13.35515807321499
 21
2.985353634702429
 31
0.0
 12
13.32869973929027
 22
2.82660363115409
 32
0.0
 13
13.32869973929027
 23
2.82660363115409
 33
0.0
  0
MTEXT
  5
75B
330
1F
100
AcDbEntity
  8
Dimensions
100
AcDbMText
 10
13.32869973929027
 20
3.718082218933408
 30
0.0
 40
0.1540991245381338
 41
0.0
 71
     2
 72
     1
  1
\A1;.60
  7
SLDTEXTSTYLE0
 73
     1
 44
1.0
1001
ACAD
1000
MTEXTBEGIN
1070
    73
1070
     1
1070
    44
1040
1.0
1070
    74
1070
     0
1000
MTEXTEND
  0
LINE
  5
75C
330
1F
100
AcDbEntity
  8
Dimensions
100
AcDbLine
 10
10.56629067248288
 20
2.706603628471835
 30
0.0
 11
10.11601991597619
 21
2.706603628471835
 31
0.0
  0
LINE
  5
75D
330
1F
100
AcDbEntity
  8
Dimensions
100
AcDbLine
 10
10.11601991597619
 20
2.826603631154045
 30
0.0
 11
10.68269630627086
 21
2.826603631154045
 31
0.0
  0
LINE
  5
75E
330
1F
100
AcDbEntity
  8
Dimensions
100
AcDbLine
 10
10.19113430966961
 20
2.985353634702384
 30
0.0
 11
10.19113430966961
 21
3.144103638250724
 31
0.0
  0
LINE
  5
75F
330
1F
100
AcDbEntity
  8
Dimensions
100
AcDbLine
 10
10.19113430966961
 20
2.547853624923496
 30
0.0
 11
10.19113430966961
 21
2.389103621375157
 31
0.0
  0
LINE
  5
760
330
1F
100
AcDbEntity
  8
Dimensions
100
AcDbLine
 10
10.19113430966961
 20
2.389103621375157
 30
0.0
 11
10.03238430612127
 21
2.389103621375157
 31
0.0
  0
SOLID
  5
761
330
1F
100
AcDbEntity
  8
Dimensions
100
AcDbTrace
 10
10.16467597574489
 20
2.985353634702384
 30
0.0
 11
10.21759264359433
 21
2.985353634702384
 31
0.0
 12
10.19113430966961
 22
2.826603631154045
 32
0.0
 13
10.19113430966961
 23
2.826603631154045
 33
0.0
  0
SOLID
  5
762
330
1F
100
AcDbEntity
  8
Dimensions
100
AcDbTrace
 10
10.16467597574489
 20
2.547853624923496
 30
0.0
 11
10.21759264359433
 21
2.547853624923496
 31
0.0
 12
10.19113430966961
 22
2.706603628471835
 32
0.0
 13
10.19113430966961
 23
2.706603628471835
 33
0.0
  0
MTEXT
  5
763
330
1F
100
AcDbEntity
  8
Dimensions
100
AcDbMText
 10
9.46555635969517
 20
2.594569120759337
 30
0.0
 40
0.1540991245381338
 41
0.0
 71
     2
 72
     1
  1
\A1;.060~0.075\PMASK OPENING\P
  7
SLDTEXTSTYLE0
 73
     1
 44
1.0
1001
ACAD
1000
MTEXTBEGIN
1070
    73
1070
     1
1070
    44
1040
1.0
1070
    74
1070
     0
1000
MTEXTEND
  0
LINE
  5
764
330
1F
100
AcDbEntity
  8
Dimensions
100
AcDbLine
 10
11.3638262514567
 20
2.703478628401984
 30
0.0
 11
11.3638262514567
 21
2.294533869775511
 31
0.0
  0
LINE
  5
765
330
1F
100
AcDbEntity
  8
Dimensions
100
AcDbLine
 10
11.62382625726815
 20
2.703478628401983
 30
0.0
 11
11.62382625726815
 21
2.294533869775511
 31
0.0
  0
LINE
  5
766
330
1F
100
AcDbEntity
  8
Dimensions
100
AcDbLine
 10
11.78257626081649
 20
2.294533869775511
 30
0.0
 11
11.94132626436483
 21
2.294533869775511
 31
0.0
  0
LINE
  5
767
330
1F
100
AcDbEntity
  8
Dimensions
100
AcDbLine
 10
11.20507624790836
 20
2.294533869775511
 30
0.0
 11
11.05175516358456
 21
2.294533869775511
 31
0.0
  0
SOLID
  5
768
330
1F
100
AcDbEntity
  8
Dimensions
100
AcDbTrace
 10
11.78257626081649
 20
2.320992203700234
 30
0.0
 11
11.78257626081649
 21
2.268075535850788
 31
0.0
 12
11.62382625726815
 22
2.294533869775511
 32
0.0
 13
11.62382625726815
 23
2.294533869775511
 33
0.0
  0
SOLID
  5
769
330
1F
100
AcDbEntity
  8
Dimensions
100
AcDbTrace
 10
11.20507624790836
 20
2.320992203700234
 30
0.0
 11
11.20507624790836
 21
2.268075535850788
 31
0.0
 12
11.3638262514567
 22
2.294533869775511
 32
0.0
 13
11.3638262514567
 23
2.294533869775511
 33
0.0
  0
MTEXT
  5
76A
330
1F
100
AcDbEntity
  8
Dimensions
100
AcDbMText
 10
10.76461712819517
 20
2.371583432044578
 30
0.0
 40
0.1540991245381338
 41
0.0
 71
     2
 72
     1
  1
\A1;0.10~.13
  7
SLDTEXTSTYLE0
 73
     1
 44
1.0
1001
ACAD
1000
MTEXTBEGIN
1070
    73
1070
     1
1070
    44
1040
1.0
1070
    74
1070
     0
1000
MTEXTEND
  0
LINE
  5
76B
330
1F
100
AcDbEntity
  8
Dimensions
100
AcDbLine
 10
2.734743229712882
 20
9.187430765871559
 30
0.0
 11
2.734743229712882
 21
10.02111600141527
 31
0.0
  0
LINE
  5
76C
330
1F
100
AcDbEntity
  8
Dimensions
100
AcDbLine
 10
7.734743341471594
 20
9.187430765871543
 30
0.0
 11
7.734743341471594
 21
10.02111600141527
 31
0.0
  0
LINE
  5
76D
330
1F
100
AcDbEntity
  8
Dimensions
100
AcDbLine
 10
2.893493233261221
 20
10.02111600141527
 30
0.0
 11
5.165141847675856
 21
10.02111600141527
 31
0.0
  0
LINE
  5
76E
330
1F
100
AcDbEntity
  8
Dimensions
100
AcDbLine
 10
7.575993337923255
 20
10.02111600141527
 30
0.0
 11
5.304344723508638
 21
10.02111600141527
 31
0.0
  0
SOLID
  5
76F
330
1F
100
AcDbEntity
  8
Dimensions
100
AcDbTrace
 10
2.893493233261221
 20
10.04757433533999
 30
0.0
 11
2.893493233261221
 21
9.994657667490548
 31
0.0
 12
2.734743229712882
 22
10.02111600141527
 32
0.0
 13
2.734743229712882
 23
10.02111600141527
 33
0.0
  0
SOLID
  5
770
330
1F
100
AcDbEntity
  8
Dimensions
100
AcDbTrace
 10
7.575993337923255
 20
10.04757433533999
 30
0.0
 11
7.575993337923255
 21
9.994657667490548
 31
0.0
 12
7.734743341471594
 22
10.02111600141527
 32
0.0
 13
7.734743341471594
 23
10.02111600141527
 33
0.0
  0
MTEXT
  5
771
330
1F
100
AcDbEntity
  8
Dimensions
100
AcDbMText
 10
5.234743285592246
 20
10.09816556368433
 30
0.0
 40
0.1540991245381338
 41
0.0
 71
     2
 72
     1
  1
\A1;5
  7
SLDTEXTSTYLE0
 73
     1
 44
1.0
1001
ACAD
1000
MTEXTBEGIN
1070
    73
1070
     1
1070
    44
1040
1.0
1070
    74
1070
     0
1000
MTEXTEND
  0
LINE
  5
772
330
1F
100
AcDbEntity
  8
Dimensions
100
AcDbLine
 10
2.534743225242552
 20
8.562430751901748
 30
0.0
 11
2.534743225242552
 21
10.24430578949456
 31
0.0
  0
LINE
  5
773
330
1F
100
AcDbEntity
  8
Dimensions
100
AcDbLine
 10
7.934743345941948
 20
8.562430751901692
 30
0.0
 11
7.934743345941948
 21
10.24430578949456
 31
0.0
  0
LINE
  5
774
330
1F
100
AcDbEntity
  8
Dimensions
100
AcDbLine
 10
2.693493228790891
 20
10.24430578949456
 30
0.0
 11
5.102988534112145
 21
10.24430578949456
 31
0.0
  0
LINE
  5
775
330
1F
100
AcDbEntity
  8
Dimensions
100
AcDbLine
 10
7.775993342393609
 20
10.24430578949456
 30
0.0
 11
5.366498037072354
 21
10.24430578949456
 31
0.0
  0
SOLID
  5
776
330
1F
100
AcDbEntity
  8
Dimensions
100
AcDbTrace
 10
2.693493228790891
 20
10.27076412341929
 30
0.0
 11
2.693493228790891
 21
10.21784745556984
 31
0.0
 12
2.534743225242552
 22
10.24430578949456
 32
0.0
 13
2.534743225242552
 23
10.24430578949456
 33
0.0
  0
SOLID
  5
777
330
1F
100
AcDbEntity
  8
Dimensions
100
AcDbTrace
 10
7.775993342393609
 20
10.27076412341929
 30
0.0
 11
7.775993342393609
 21
10.21784745556984
 31
0.0
 12
7.934743345941948
 22
10.24430578949456
 32
0.0
 13
7.934743345941948
 23
10.24430578949456
 33
0.0
  0
MTEXT
  5
778
330
1F
100
AcDbEntity
  8
Dimensions
100
AcDbMText
 10
5.234743285592248
 20
10.32135535176363
 30
0.0
 40
0.1540991245381338
 41
0.0
 71
     2
 72
     1
  1
\A1;5.4
  7
SLDTEXTSTYLE0
 73
     1
 44
1.0
1001
ACAD
1000
MTEXTBEGIN
1070
    73
1070
     1
1070
    44
1040
1.0
1070
    74
1070
     0
1000
MTEXTEND
  0
LINE
  5
779
330
1F
100
AcDbEntity
  8
Dimensions
100
AcDbLine
 10
3.484743246476705
 20
9.511059581304378
 30
0.0
 11
3.484743246476705
 21
9.749825211362702
 31
0.0
  0
LINE
  5
77A
330
1F
100
AcDbEntity
  8
Dimensions
100
AcDbLine
 10
6.984743324707803
 20
9.511059581304369
 30
0.0
 11
6.984743324707803
 21
9.749825211362702
 31
0.0
  0
LINE
  5
77B
330
1F
100
AcDbEntity
  8
Dimensions
100
AcDbLine
 10
3.643493250025044
 20
9.749825211362702
 30
0.0
 11
5.064142713134824
 21
9.749825211362702
 31
0.0
  0
LINE
  5
77C
330
1F
100
AcDbEntity
  8
Dimensions
100
AcDbLine
 10
6.825993321159463
 20
9.749825211362702
 30
0.0
 11
5.405343858049675
 21
9.749825211362702
 31
0.0
  0
SOLID
  5
77D
330
1F
100
AcDbEntity
  8
Dimensions
100
AcDbTrace
 10
3.643493250025044
 20
9.776283545287427
 30
0.0
 11
3.643493250025044
 21
9.72336687743798
 31
0.0
 12
3.484743246476705
 22
9.749825211362702
 32
0.0
 13
3.484743246476705
 23
9.749825211362702
 33
0.0
  0
SOLID
  5
77E
330
1F
100
AcDbEntity
  8
Dimensions
100
AcDbTrace
 10
6.825993321159463
 20
9.776283545287427
 30
0.0
 11
6.825993321159463
 21
9.72336687743798
 31
0.0
 12
6.984743324707803
 22
9.749825211362702
 32
0.0
 13
6.984743324707803
 23
9.749825211362702
 33
0.0
  0
MTEXT
  5
77F
330
1F
100
AcDbEntity
  8
Dimensions
100
AcDbMText
 10
5.234743285592248
 20
9.826874773631768
 30
0.0
 40
0.1540991245381338
 41
0.0
 71
     2
 72
     1
  1
\A1;3.50
  7
SLDTEXTSTYLE0
 73
     1
 44
1.0
1001
ACAD
1000
MTEXTBEGIN
1070
    73
1070
     1
1070
    44
1040
1.0
1070
    74
1070
     0
1000
MTEXTEND
  0
LINE
  5
780
330
1F
100
AcDbEntity
  8
Dimensions
100
AcDbLine
 10
2.531618225172663
 20
5.809305690364608
 30
0.0
 11
2.043315062668162
 21
5.809305690364608
 31
0.0
  0
LINE
  5
781
330
1F
100
AcDbEntity
  8
Dimensions
100
AcDbLine
 10
2.531618225172667
 20
6.059305695952543
 30
0.0
 11
2.043315062668162
 21
6.059305695952543
 31
0.0
  0
LINE
  5
782
330
1F
100
AcDbEntity
  8
Dimensions
100
AcDbLine
 10
2.043315062668162
 20
6.218055699500883
 30
0.0
 11
2.043315062668162
 21
6.376805703049222
 31
0.0
  0
LINE
  5
783
330
1F
100
AcDbEntity
  8
Dimensions
100
AcDbLine
 10
2.043315062668162
 20
5.650555686816269
 30
0.0
 11
2.043315062668161
 21
5.473820949364547
 31
0.0
  0
LINE
  5
784
330
1F
100
AcDbEntity
  8
Dimensions
100
AcDbLine
 10
2.043315062668161
 20
5.473820949364547
 30
0.0
 11
1.884565059119823
 21
5.473820949364547
 31
0.0
  0
SOLID
  5
785
330
1F
100
AcDbEntity
  8
Dimensions
100
AcDbTrace
 10
2.016856728743439
 20
6.218055699500883
 30
0.0
 11
2.069773396592885
 21
6.218055699500883
 31
0.0
 12
2.043315062668162
 22
6.059305695952543
 32
0.0
 13
2.043315062668162
 23
6.059305695952543
 33
0.0
  0
SOLID
  5
786
330
1F
100
AcDbEntity
  8
Dimensions
100
AcDbTrace
 10
2.016856728743439
 20
5.650555686816269
 30
0.0
 11
2.069773396592885
 21
5.650555686816269
 31
0.0
 12
2.043315062668162
 22
5.809305690364608
 32
0.0
 13
2.043315062668162
 23
5.809305690364608
 33
0.0
  0
MTEXT
  5
787
330
1F
100
AcDbEntity
  8
Dimensions
100
AcDbMText
 10
1.752810307639717
 20
5.550870511633615
 30
0.0
 40
0.1540991245381338
 41
0.0
 71
     2
 72
     1
  1
\A1;.25
  7
SLDTEXTSTYLE0
 73
     1
 44
1.0
1001
ACAD
1000
MTEXTBEGIN
1070
    73
1070
     1
1070
    44
1040
1.0
1070
    74
1070
     0
1000
MTEXTEND
  0
LINE
  5
788
330
1F
100
AcDbEntity
  8
Dimensions
100
AcDbLine
 10
2.731618229643016
 20
4.184305654042999
 30
0.0
 11
1.074743192608951
 21
4.184305654043
 31
0.0
  0
LINE
  5
789
330
1F
100
AcDbEntity
  8
Dimensions
100
AcDbLine
 10
2.731618229643034
 20
9.18430576580171
 30
0.0
 11
1.074743192608952
 21
9.18430576580171
 31
0.0
  0
LINE
  5
78A
330
1F
100
AcDbEntity
  8
Dimensions
100
AcDbLine
 10
1.074743192608951
 20
4.343055657591339
 30
0.0
 11
1.074743192608952
 21
6.914393543983227
 31
0.0
  0
LINE
  5
78B
330
1F
100
AcDbEntity
  8
Dimensions
100
AcDbLine
 10
1.074743192608952
 20
9.02555576225337
 30
0.0
 11
1.074743192608952
 21
7.145542230790427
 31
0.0
  0
SOLID
  5
78C
330
1F
100
AcDbEntity
  8
Dimensions
100
AcDbTrace
 10
1.048284858684228
 20
4.343055657591339
 30
0.0
 11
1.101201526533674
 21
4.343055657591339
 31
0.0
 12
1.074743192608951
 22
4.184305654043
 32
0.0
 13
1.074743192608951
 23
4.184305654043
 33
0.0
  0
SOLID
  5
78D
330
1F
100
AcDbEntity
  8
Dimensions
100
AcDbTrace
 10
1.048284858684229
 20
9.02555576225337
 30
0.0
 11
1.101201526533675
 21
9.02555576225337
 31
0.0
 12
1.074743192608952
 22
9.18430576580171
 32
0.0
 13
1.074743192608952
 23
9.18430576580171
 33
0.0
  0
MTEXT
  5
78E
330
1F
100
AcDbEntity
  8
Dimensions
100
AcDbMText
 10
1.07474319260895
 20
7.107017449655893
 30
0.0
 40
0.1540991245381338
 41
0.0
 71
     2
 72
     1
  1
\A1;5
  7
SLDTEXTSTYLE0
 73
     1
 44
1.0
1001
ACAD
1000
MTEXTBEGIN
1070
    73
1070
     1
1070
    44
1040
1.0
1070
    74
1070
     0
1000
MTEXTEND
  0
LINE
  5
78F
330
1F
100
AcDbEntity
  8
Dimensions
100
AcDbLine
 10
4.356618265964616
 20
9.384305770272053
 30
0.0
 11
0.7747431859034323
 21
9.384305770272055
 31
0.0
  0
LINE
  5
790
330
1F
100
AcDbEntity
  8
Dimensions
100
AcDbLine
 10
4.356618265964597
 20
3.984305649572644
 30
0.0
 11
0.7747431859034312
 21
3.984305649572645
 31
0.0
  0
LINE
  5
791
330
1F
100
AcDbEntity
  8
Dimensions
100
AcDbLine
 10
0.7747431859034323
 20
9.225555766723715
 30
0.0
 11
0.7747431859034318
 21
6.79988005332593
 31
0.0
  0
LINE
  5
792
330
1F
100
AcDbEntity
  8
Dimensions
100
AcDbLine
 10
0.7747431859034312
 20
4.143055653120983
 30
0.0
 11
0.7747431859034318
 21
6.56873136651873
 31
0.0
  0
SOLID
  5
793
330
1F
100
AcDbEntity
  8
Dimensions
100
AcDbTrace
 10
0.7482848519787091
 20
9.225555766723715
 30
0.0
 11
0.8012015198281554
 21
9.225555766723715
 31
0.0
 12
0.7747431859034323
 22
9.384305770272055
 32
0.0
 13
0.7747431859034323
 23
9.384305770272055
 33
0.0
  0
SOLID
  5
794
330
1F
100
AcDbEntity
  8
Dimensions
100
AcDbTrace
 10
0.748284851978708
 20
4.143055653120983
 30
0.0
 11
0.8012015198281542
 21
4.143055653120983
 31
0.0
 12
0.7747431859034312
 22
3.984305649572645
 32
0.0
 13
0.7747431859034312
 23
3.984305649572645
 33
0.0
  0
MTEXT
  5
795
330
1F
100
AcDbEntity
  8
Dimensions
100
AcDbMText
 10
0.7747431859034306
 20
6.761355272191396
 30
0.0
 40
0.1540991245381338
 41
0.0
 71
     2
 72
     1
  1
\A1;5.4
  7
SLDTEXTSTYLE0
 73
     1
 44
1.0
1001
ACAD
1000
MTEXTBEGIN
1070
    73
1070
     1
1070
    44
1040
1.0
1070
    74
1070
     0
1000
MTEXTEND
  0
LINE
  5
796
330
1F
100
AcDbEntity
  8
Dimensions
100
AcDbLine
 10
2.335986783807464
 20
8.434305749037898
 30
0.0
 11
1.534087051553363
 21
8.434305749037898
 31
0.0
  0
LINE
  5
797
330
1F
100
AcDbEntity
  8
Dimensions
100
AcDbLine
 10
2.330962069364913
 20
4.934305670806798
 30
0.0
 11
1.534087051553362
 21
4.934305670806799
 31
0.0
  0
LINE
  5
798
330
1F
100
AcDbEntity
  8
Dimensions
100
AcDbLine
 10
1.534087051553363
 20
8.275555745489558
 30
0.0
 11
1.534087051553363
 21
6.799880053325944
 31
0.0
  0
LINE
  5
799
330
1F
100
AcDbEntity
  8
Dimensions
100
AcDbLine
 10
1.534087051553362
 20
5.093055674355138
 30
0.0
 11
1.534087051553363
 21
6.568731366518744
 31
0.0
  0
SOLID
  5
79A
330
1F
100
AcDbEntity
  8
Dimensions
100
AcDbTrace
 10
1.50762871762864
 20
8.275555745489558
 30
0.0
 11
1.560545385478086
 21
8.275555745489558
 31
0.0
 12
1.534087051553363
 22
8.434305749037898
 32
0.0
 13
1.534087051553363
 23
8.434305749037898
 33
0.0
  0
SOLID
  5
79B
330
1F
100
AcDbEntity
  8
Dimensions
100
AcDbTrace
 10
1.507628717628639
 20
5.093055674355138
 30
0.0
 11
1.560545385478086
 21
5.093055674355138
 31
0.0
 12
1.534087051553362
 22
4.934305670806799
 32
0.0
 13
1.534087051553362
 23
4.934305670806799
 33
0.0
  0
MTEXT
  5
79C
330
1F
100
AcDbEntity
  8
Dimensions
100
AcDbMText
 10
1.534087051553362
 20
6.76135527219141
 30
0.0
 40
0.1540991245381338
 41
0.0
 71
     2
 72
     1
  1
\A1;3.50
  7
SLDTEXTSTYLE0
 73
     1
 44
1.0
1001
ACAD
1000
MTEXTBEGIN
1070
    73
1070
     1
1070
    44
1040
1.0
1070
    74
1070
     0
1000
MTEXTEND
  0
LINE
  5
79D
330
1F
100
AcDbEntity
  8
Dimensions
100
AcDbLine
 10
2.335986783807464
 20
8.434305749037898
 30
0.0
 11
1.974743212725521
 21
8.434305749037898
 31
0.0
  0
LINE
  5
79E
330
1F
100
AcDbEntity
  8
Dimensions
100
AcDbLine
 10
2.330962069364918
 20
7.934305737862026
 30
0.0
 11
1.974743212725521
 21
7.934305737862026
 31
0.0
  0
LINE
  5
79F
330
1F
100
AcDbEntity
  8
Dimensions
100
AcDbLine
 10
1.974743212725521
 20
8.593055752586238
 30
0.0
 11
1.974743212725521
 21
8.751805756134576
 31
0.0
  0
LINE
  5
7A0
330
1F
100
AcDbEntity
  8
Dimensions
100
AcDbLine
 10
1.974743212725521
 20
7.775555734313686
 30
0.0
 11
1.974743212725521
 21
7.616805730765348
 31
0.0
  0
SOLID
  5
7A1
330
1F
100
AcDbEntity
  8
Dimensions
100
AcDbTrace
 10
1.948284878800797
 20
8.593055752586238
 30
0.0
 11
2.001201546650244
 21
8.593055752586238
 31
0.0
 12
1.974743212725521
 22
8.434305749037898
 32
0.0
 13
1.974743212725521
 23
8.434305749037898
 33
0.0
  0
SOLID
  5
7A2
330
1F
100
AcDbEntity
  8
Dimensions
100
AcDbTrace
 10
1.948284878800797
 20
7.775555734313686
 30
0.0
 11
2.001201546650244
 21
7.775555734313686
 31
0.0
 12
1.974743212725521
 22
7.934305737862026
 32
0.0
 13
1.974743212725521
 23
7.934305737862026
 33
0.0
  0
MTEXT
  5
7A3
330
1F
100
AcDbEntity
  8
Dimensions
100
AcDbMText
 10
1.974743212725519
 20
8.260634411937179
 30
0.0
 40
0.1540991245381338
 41
0.0
 71
     2
 72
     1
  1
\A1;.50
  7
SLDTEXTSTYLE0
 73
     1
 44
1.0
1001
ACAD
1000
MTEXTBEGIN
1070
    73
1070
     1
1070
    44
1040
1.0
1070
    74
1070
     0
1000
MTEXTEND
  0
MTEXT
  5
7A4
330
1F
100
AcDbEntity
  8
Notes
100
AcDbMText
 10
0.4247403769977521
 20
3.172193524774009
 30
0.0
 40
0.1058333356988927
 41
0.0
 71
     1
 72
     1
  1
Notes: (Unless Otherwise Specified).
  7
SLDTEXTSTYLE0
 73
     1
 44
1.0
1001
ACAD
1000
MTEXTBEGIN
1070
    73
1070
     1
1070
    44
1040
1.0
1070
    74
1070
     0
1000
MTEXTEND
  0
MTEXT
  5
7A5
330
1F
100
AcDbEntity
  8
Notes
100
AcDbMText
 10
0.4247403769977521
 20
3.031082412214173
 30
0.0
 40
0.1058333356988927
 41
0.0
 71
     1
 72
     1
  1
  1) DIMENSIONS ARE PRESENTED ONLY AS A GUIDELINE. 
  7
SLDTEXTSTYLE0
 73
     1
 44
1.0
1001
ACAD
1000
MTEXTBEGIN
1070
    73
1070
     1
1070
    44
1040
1.0
1070
    74
1070
     0
1000
MTEXTEND
  0
MTEXT
  5
7A6
330
1F
100
AcDbEntity
  8
Notes
100
AcDbMText
 10
0.4247403769977521
 20
2.889971299654338
 30
0.0
 40
0.1058333356988927
 41
0.0
 71
     1
 72
     1
  1
      DESIGNERS SHOULD USE THEIR OWN KNOWLEDGE BASE WHEN DESIGNING THE PCB.
  7
SLDTEXTSTYLE0
 73
     1
 44
1.0
1001
ACAD
1000
MTEXTBEGIN
1070
    73
1070
     1
1070
    44
1040
1.0
1070
    74
1070
     0
1000
MTEXTEND
  0
MTEXT
  5
7A7
330
1F
100
AcDbEntity
  8
Notes
100
AcDbMText
 10
0.4247403769977521
 20
2.748860187094503
 30
0.0
 40
0.1058333356988927
 41
0.0
 71
     1
 72
     1
  1
  2) SURROUND EACH SIDE OF I/O PERIMETER PADS WITH 0.060~0.075 mm (NSMD) SOLDER MASK 
  7
SLDTEXTSTYLE0
 73
     1
 44
1.0
1001
ACAD
1000
MTEXTBEGIN
1070
    73
1070
     1
1070
    44
1040
1.0
1070
    74
1070
     0
1000
MTEXTEND
  0
MTEXT
  5
7A8
330
1F
100
AcDbEntity
  8
Notes
100
AcDbMText
 10
0.4247403769977521
 20
2.607749074534668
 30
0.0
 40
0.1058333356988927
 41
0.0
 71
     1
 72
     1
  1
      OPENING (2.4~3.0mils). OPTIONALLY OK TO USE RECTANGLE (NSMD) MASK OPENING AROUND I/O PADS.
  7
SLDTEXTSTYLE0
 73
     1
 44
1.0
1001
ACAD
1000
MTEXTBEGIN
1070
    73
1070
     1
1070
    44
1040
1.0
1070
    74
1070
     0
1000
MTEXTEND
  0
MTEXT
  5
7A9
330
1F
100
AcDbEntity
  8
Notes
100
AcDbMText
 10
0.4247403769977521
 20
2.466637961974833
 30
0.0
 40
0.1058333356988927
 41
0.0
 71
     1
 72
     1
  1
  3) ROUNDED PCB LAND PADS REDUCE SOLDER BRIDGING.
  7
SLDTEXTSTYLE0
 73
     1
 44
1.0
1001
ACAD
1000
MTEXTBEGIN
1070
    73
1070
     1
1070
    44
1040
1.0
1070
    74
1070
     0
1000
MTEXTEND
  0
MTEXT
  5
7AA
330
1F
100
AcDbEntity
  8
Notes
100
AcDbMText
 10
0.4247403769977521
 20
2.325526849414999
 30
0.0
 40
0.1058333356988927
 41
0.0
 71
     1
 72
     1
  1
  4) PCB LANDS SHOULD BE 0.2mm LONGER THEN THE PACKAGE I/O PADS.
  7
SLDTEXTSTYLE0
 73
     1
 44
1.0
1001
ACAD
1000
MTEXTBEGIN
1070
    73
1070
     1
1070
    44
1040
1.0
1070
    74
1070
     0
1000
MTEXTEND
  0
MTEXT
  5
7AB
330
1F
100
AcDbEntity
  8
Notes
100
AcDbMText
 10
0.4247403769977521
 20
2.184415736855163
 30
0.0
 40
0.1058333356988927
 41
0.0
 71
     1
 72
     1
  1
  5) THE WIDTH OF PERIMETER PCB PADS SHOULD MATCH (1:1) THE SAME WIDTH AS THE PACKAGE PADS.
  7
SLDTEXTSTYLE0
 73
     1
 44
1.0
1001
ACAD
1000
MTEXTBEGIN
1070
    73
1070
     1
1070
    44
1040
1.0
1070
    74
1070
     0
1000
MTEXTEND
  0
MTEXT
  5
7AC
330
1F
100
AcDbEntity
  8
Notes
100
AcDbMText
 10
0.4247403769977521
 20
2.043304624295328
 30
0.0
 40
0.1058333356988927
 41
0.0
 71
     1
 72
     1
  1
  6) REFER TO INDUSTRY REFERENCES SUCH AS IPC-SM-782 FOR PCB LAND PATTERN DESIGN.
  7
SLDTEXTSTYLE0
 73
     1
 44
1.0
1001
ACAD
1000
MTEXTBEGIN
1070
    73
1070
     1
1070
    44
1040
1.0
1070
    74
1070
     0
1000
MTEXTEND
  0
MTEXT
  5
7AD
330
1F
100
AcDbEntity
  8
Notes
100
AcDbMText
 10
0.4247403769977521
 20
1.902193511735493
 30
0.0
 40
0.1058333356988927
 41
0.0
 71
     1
 72
     1
  1
  7) THERMAL GROUND PADS MAY BE CHANGED TO SUITE REQUIREMENTS OF THE DESIGNER.
  7
SLDTEXTSTYLE0
 73
     1
 44
1.0
1001
ACAD
1000
MTEXTBEGIN
1070
    73
1070
     1
1070
    44
1040
1.0
1070
    74
1070
     0
1000
MTEXTEND
  0
MTEXT
  5
7AE
330
1F
100
AcDbEntity
  8
Notes
100
AcDbMText
 10
0.924740388173623
 20
1.761082399175658
 30
0.0
 40
0.1058333356988927
 41
0.0
 71
     1
 72
     1
  1
A. MAKE COPPER THERMAL PAD AS LARGE AS POSSIBLE.
  7
SLDTEXTSTYLE0
 73
     1
 44
1.0
1001
ACAD
1000
MTEXTBEGIN
1070
    73
1070
     1
1070
    44
1040
1.0
1070
    74
1070
     0
1000
MTEXTEND
  0
MTEXT
  5
7AF
330
1F
100
AcDbEntity
  8
Notes
100
AcDbMText
 10
0.924740388173623
 20
1.619971286615823
 30
0.0
 40
0.1058333356988927
 41
0.0
 71
     1
 72
     1
  1
B. DRILL MULTIPLE THERMAL VIAS 0.25~0.33mm DIAMETER USING 0.8~1.2mm PITCH GRID.
  7
SLDTEXTSTYLE0
 73
     1
 44
1.0
1001
ACAD
1000
MTEXTBEGIN
1070
    73
1070
     1
1070
    44
1040
1.0
1070
    74
1070
     0
1000
MTEXTEND
  0
MTEXT
  5
7B0
330
1F
100
AcDbEntity
  8
Notes
100
AcDbMText
 10
0.924740388173623
 20
1.478860174055987
 30
0.0
 40
0.1058333356988927
 41
0.0
 71
     1
 72
     1
  1
C. PLATE THERMAL VIA BARRELS WITH 1-OUNCE COPPER (18µm).
  7
SLDTEXTSTYLE0
 73
     1
 44
1.0
1001
ACAD
1000
MTEXTBEGIN
1070
    73
1070
     1
1070
    44
1040
1.0
1070
    74
1070
     0
1000
MTEXTEND
  0
MTEXT
  5
7B1
330
1F
100
AcDbEntity
  8
Notes
100
AcDbMText
 10
0.924740388173623
 20
1.337749061496152
 30
0.0
 40
0.1058333356988927
 41
0.0
 71
     1
 72
     1
  1
D. TENT (COVER) THERMAL VIAS WITH SOLDER MASK 0.1mm LARGER THEN THE VIA DIAMETER.
  7
SLDTEXTSTYLE0
 73
     1
 44
1.0
1001
ACAD
1000
MTEXTBEGIN
1070
    73
1070
     1
1070
    44
1040
1.0
1070
    74
1070
     0
1000
MTEXTEND
  0
MTEXT
  5
7B2
330
1F
100
AcDbEntity
  8
Notes
100
AcDbMText
 10
0.4247403769977521
 20
1.196637948936317
 30
0.0
 40
0.1058333356988927
 41
0.0
 71
     1
 72
     1
  1
   8) STENCIL DESIGN MAY BE CHANGED TO SUITE REQUIREMENTS OF THE DESIGNER.
  7
SLDTEXTSTYLE0
 73
     1
 44
1.0
1001
ACAD
1000
MTEXTBEGIN
1070
    73
1070
     1
1070
    44
1040
1.0
1070
    74
1070
     0
1000
MTEXTEND
  0
MTEXT
  5
7B3
330
1F
100
AcDbEntity
  8
Notes
100
AcDbMText
 10
0.4247403769977521
 20
1.055526836376482
 30
0.0
 40
0.1058333356988927
 41
0.0
 71
     1
 72
     1
  1
             A. LASER CUT STENCIL 0.125mm (5mil) THICK. APERTURE SIZE-TO-LAND RATIO OF 1:1.
  7
SLDTEXTSTYLE0
 73
     1
 44
1.0
1001
ACAD
1000
MTEXTBEGIN
1070
    73
1070
     1
1070
    44
1040
1.0
1070
    74
1070
     0
1000
MTEXTEND
  0
MTEXT
  5
7B4
330
1F
100
AcDbEntity
  8
Notes
100
AcDbMText
 10
0.4247403769977521
 20
0.9144157238166469
 30
0.0
 40
0.1058333356988927
 41
0.0
 71
     1
 72
     1
  1
             B. THE SOLDER PASTE OPENING IN THE THERMAL PAD AREA SHOULD BE A MATRIX ARRAY OF
  7
SLDTEXTSTYLE0
 73
     1
 44
1.0
1001
ACAD
1000
MTEXTBEGIN
1070
    73
1070
     1
1070
    44
1040
1.0
1070
    74
1070
     0
1000
MTEXTEND
  0
MTEXT
  5
7B5
330
1F
100
AcDbEntity
  8
Notes
100
AcDbMText
 10
0.4247403769977521
 20
0.7733046112568119
 30
0.0
 40
0.1058333356988927
 41
0.0
 71
     1
 72
     1
  1
                 SMALLER APERTURES INSTEAD OF ONE LARGE APERTURE TO CONTROL PASTE AMOUNTS.
  7
SLDTEXTSTYLE0
 73
     1
 44
1.0
1001
ACAD
1000
MTEXTBEGIN
1070
    73
1070
     1
1070
    44
1040
1.0
1070
    74
1070
     0
1000
MTEXTEND
  0
MTEXT
  5
7B6
330
1F
100
AcDbEntity
  8
Notes
100
AcDbMText
 10
0.4247403769977521
 20
0.6321934986969767
 30
0.0
 40
0.1058333356988927
 41
0.0
 71
     1
 72
     1
  1
             C. APPLY 50% TO 80% SOLDER PASTE COVERAGE IN THE THERMAL PAD AREA.
  7
SLDTEXTSTYLE0
 73
     1
 44
1.0
1001
ACAD
1000
MTEXTBEGIN
1070
    73
1070
     1
1070
    44
1040
1.0
1070
    74
1070
     0
1000
MTEXTEND
  0
MTEXT
  5
7B7
330
1F
100
AcDbEntity
  8
Notes
100
AcDbMText
 10
9.007307409670486
 20
10.2779119438559
 30
0.0
 40
0.158750003548339
 41
0.0
 71
     1
 72
     1
  1
RECOMMENDED PC BOARD LAYOUT
  7
SLDTEXTSTYLE0
 73
     1
 44
1.0
1001
ACAD
1000
MTEXTBEGIN
1070
    73
1070
     1
1070
    44
1040
1.0
1070
    74
1070
     0
1000
MTEXTEND
  0
MTEXT
  5
7B8
330
1F
100
AcDbEntity
  8
Notes
100
AcDbMText
 10
9.883372120944649
 20
10.06624527501615
 30
0.0
 40
0.158750003548339
 41
0.0
 71
     1
 72
     1
  1
DIMENSIONS IN MM
  7
SLDTEXTSTYLE0
 73
     1
 44
1.0
1001
ACAD
1000
MTEXTBEGIN
1070
    73
1070
     1
1070
    44
1040
1.0
1070
    74
1070
     0
1000
MTEXTEND
  0
LINE
  5
7C3
330
1F
100
AcDbEntity
  8
Dimensions
100
AcDbLine
 10
12.24382627112623
 20
2.82347863108419
 30
0.0
 11
12.24382627112623
 21
2.523764877223706
 31
0.0
  0
LINE
  5
7C4
330
1F
100
AcDbEntity
  8
Dimensions
100
AcDbLine
 10
11.74382625995036
 20
2.823478631084192
 30
0.0
 11
11.74382625995036
 21
2.523764877223706
 31
0.0
  0
LINE
  5
7C5
330
1F
100
AcDbEntity
  8
Dimensions
100
AcDbLine
 10
11.9025762634987
 20
2.523764877223706
 30
0.0
 11
12.08507626757789
 21
2.523764877223706
 31
0.0
  0
LINE
  5
7C6
330
1F
100
AcDbEntity
  8
Dimensions
100
AcDbLine
 10
12.24382627112623
 20
2.523764877223706
 30
0.0
 11
12.59010538509524
 21
2.523764877223706
 31
0.0
  0
SOLID
  5
7C7
330
1F
100
AcDbEntity
  8
Dimensions
100
AcDbTrace
 10
11.9025762634987
 20
2.550223211148429
 30
0.0
 11
11.9025762634987
 21
2.497306543298982
 31
0.0
 12
11.74382625995036
 22
2.523764877223706
 32
0.0
 13
11.74382625995036
 23
2.523764877223706
 33
0.0
  0
SOLID
  5
7C8
330
1F
100
AcDbEntity
  8
Dimensions
100
AcDbTrace
 10
12.08507626757789
 20
2.550223211148429
 30
0.0
 11
12.08507626757789
 21
2.497306543298982
 31
0.0
 12
12.24382627112623
 22
2.523764877223706
 32
0.0
 13
12.24382627112623
 23
2.523764877223706
 33
0.0
  0
MTEXT
  5
7C9
330
1F
100
AcDbEntity
  8
Dimensions
100
AcDbMText
 10
12.72186013657534
 20
2.600814439492773
 30
0.0
 40
0.1540991245381338
 41
0.0
 71
     2
 72
     1
  1
\A1;.25
  7
SLDTEXTSTYLE0
 73
     1
 44
1.0
1001
ACAD
1000
MTEXTBEGIN
1070
    73
1070
     1
1070
    44
1040
1.0
1070
    74
1070
     0
1000
MTEXTEND
  0
MTEXT
  5
7CA
330
1F
100
AcDbEntity
  8
Detail
 62
     0
100
AcDbMText
 10
8.903189758380888
 20
3.698306224591356
 30
0.0
 40
0.1587500035483391
 41
0.0
 71
     1
 72
     1
  1
DETAIL B 
  7
SLDTEXTSTYLE0
 73
     1
 44
1.0
1001
ACAD
1000
MTEXTBEGIN
1070
    73
1070
     1
1070
    44
1040
1.0
1070
    74
1070
     0
1000
MTEXTEND
  0
MTEXT
  5
7CB
330
1F
100
AcDbEntity
  8
Detail
 62
     0
100
AcDbMText
 10
8.762078692387182
 20
3.486639555751604
 30
0.0
 40
0.1587500035483391
 41
0.0
 71
     1
 72
     1
  1
SCALE 40 : 1
  7
SLDTEXTSTYLE0
 73
     1
 44
1.0
1001
ACAD
1000
MTEXTBEGIN
1070
    73
1070
     1
1070
    44
1040
1.0
1070
    74
1070
     0
1000
MTEXTEND
  0
MTEXT
  5
7CC
330
1F
100
AcDbEntity
  8
Titleblock
 62
     0
100
AcDbMText
 10
10.32598189614462
 20
0.950039430050006
 30
0.0
 40
0.0793750017741696
 41
0.0
 71
     1
 72
     1
  1
SCALE
  7
SLDTEXTSTYLE0
 73
     1
 44
1.0
1001
ACAD
1000
MTEXTBEGIN
1070
    73
1070
     1
1070
    44
1040
1.0
1070
    74
1070
     0
1000
MTEXTEND
  0
MTEXT
  5
7CD
330
1F
100
AcDbEntity
  8
Titleblock
 62
     0
100
AcDbMText
 10
10.32598189614462
 20
0.8355383723086362
 30
0.0
 40
0.1058333356988927
 41
0.0
 71
     1
 72
     1
  1
        20:1 
  7
SLDTEXTSTYLE0
 73
     1
 44
1.0
1001
ACAD
1000
MTEXTBEGIN
1070
    73
1070
     1
1070
    44
1040
1.0
1070
    74
1070
     0
1000
MTEXTEND
  0
ARC
  5
7DA
330
1F
100
AcDbEntity
  8
PCB_Soldermask
100
AcDbCircle
 10
3.009743235859585
 20
8.434305740656013
 30
0.0
 40
0.1850000041350725
100
AcDbArc
 50
270.0000000000002
 51
89.99999999999944
  0
LINE
  5
7DB
330
1F
100
AcDbEntity
  8
PCB_Soldermask
100
AcDbLine
 10
2.474743162657647
 20
8.24930578722212
 30
0.0
 11
3.009743290248843
 21
8.24930578722212
 31
0.0
  0
LINE
  5
7DC
330
1F
100
AcDbEntity
  8
PCB_Soldermask
100
AcDbLine
 10
2.474743162657647
 20
8.619305702471763
 30
0.0
 11
2.474743162657647
 21
8.24930578722212
 31
0.0
  0
LINE
  5
7DD
330
1F
100
AcDbEntity
  8
PCB_Soldermask
100
AcDbLine
 10
3.009743290248843
 20
8.619305702471763
 30
0.0
 11
2.474743162657647
 21
8.619305702471763
 31
0.0
  0
LINE
  5
7DE
330
1F
100
AcDbEntity
  8
PCB_Pads
100
AcDbLine
 10
2.534743155207067
 20
8.309305779771538
 30
0.0
 11
2.534743155207067
 21
8.559305709922345
 31
0.0
  0
LINE
  5
7DF
330
1F
100
AcDbEntity
  8
PCB_Pads
100
AcDbLine
 10
3.009743290248843
 20
8.309305779771538
 30
0.0
 11
2.534743155207067
 21
8.309305779771538
 31
0.0
  0
ARC
  5
7E0
330
1F
100
AcDbEntity
  8
PCB_Pads
100
AcDbCircle
 10
3.009743235859585
 20
8.434305740656013
 30
0.0
 40
0.1250000027939678
100
AcDbArc
 50
270.0000000000005
 51
89.9999999999992
  0
LINE
  5
7E1
330
1F
100
AcDbEntity
  8
PCB_Pads
100
AcDbLine
 10
2.534743155207067
 20
8.559305709922345
 30
0.0
 11
3.009743290248843
 21
8.559305709922345
 31
0.0
  0
LINE
  5
7E2
330
1F
100
AcDbEntity
  8
QFN_Bottom
100
AcDbLine
 10
2.534743155207067
 20
8.309305779771538
 30
0.0
 11
2.534743155207067
 21
8.559305709922345
 31
0.0
  0
LINE
  5
7E3
330
1F
100
AcDbEntity
  8
QFN_Bottom
100
AcDbLine
 10
3.009743290248843
 20
8.309305779771538
 30
0.0
 11
2.534743155207067
 21
8.309305779771538
 31
0.0
  0
ARC
  5
7E4
330
1F
100
AcDbEntity
  8
QFN_Bottom
100
AcDbCircle
 10
3.009743235859585
 20
8.434305740656013
 30
0.0
 40
0.1250000027939678
100
AcDbArc
 50
270.0000000000005
 51
89.9999999999992
  0
LINE
  5
7E5
330
1F
100
AcDbEntity
  8
QFN_Bottom
100
AcDbLine
 10
2.534743155207067
 20
8.559305709922345
 30
0.0
 11
3.009743290248843
 21
8.559305709922345
 31
0.0
  0
ARC
  5
7E6
330
1F
100
AcDbEntity
  8
PCB_Soldermask
100
AcDbCircle
 10
3.009743235859585
 20
7.934305763939079
 30
0.0
 40
0.1850000041350725
100
AcDbArc
 50
270.0000000000002
 51
89.99999999999944
  0
LINE
  5
7E7
330
1F
100
AcDbEntity
  8
PCB_Soldermask
100
AcDbLine
 10
2.474743162657647
 20
7.749305810505185
 30
0.0
 11
3.009743290248843
 21
7.749305810505185
 31
0.0
  0
LINE
  5
7E8
330
1F
100
AcDbEntity
  8
PCB_Soldermask
100
AcDbLine
 10
2.474743162657647
 20
8.119305725754829
 30
0.0
 11
2.474743162657647
 21
7.749305810505185
 31
0.0
  0
LINE
  5
7E9
330
1F
100
AcDbEntity
  8
PCB_Soldermask
100
AcDbLine
 10
3.009743290248843
 20
8.119305725754829
 30
0.0
 11
2.474743162657647
 21
8.119305725754829
 31
0.0
  0
LINE
  5
7EA
330
1F
100
AcDbEntity
  8
PCB_Pads
100
AcDbLine
 10
2.534743155207067
 20
7.809305803054605
 30
0.0
 11
2.534743155207067
 21
8.059305733205409
 31
0.0
  0
LINE
  5
7EB
330
1F
100
AcDbEntity
  8
PCB_Pads
100
AcDbLine
 10
3.009743290248843
 20
7.809305803054605
 30
0.0
 11
2.534743155207067
 21
7.809305803054605
 31
0.0
  0
ARC
  5
7EC
330
1F
100
AcDbEntity
  8
PCB_Pads
100
AcDbCircle
 10
3.009743235859585
 20
7.934305763939079
 30
0.0
 40
0.1250000027939678
100
AcDbArc
 50
270.0000000000005
 51
89.9999999999992
  0
LINE
  5
7ED
330
1F
100
AcDbEntity
  8
PCB_Pads
100
AcDbLine
 10
2.534743155207067
 20
8.059305733205409
 30
0.0
 11
3.009743290248843
 21
8.059305733205409
 31
0.0
  0
LINE
  5
7EE
330
1F
100
AcDbEntity
  8
QFN_Bottom
100
AcDbLine
 10
2.534743155207067
 20
7.809305803054605
 30
0.0
 11
2.534743155207067
 21
8.059305733205409
 31
0.0
  0
LINE
  5
7EF
330
1F
100
AcDbEntity
  8
QFN_Bottom
100
AcDbLine
 10
3.009743290248843
 20
7.809305803054605
 30
0.0
 11
2.534743155207067
 21
7.809305803054605
 31
0.0
  0
ARC
  5
7F0
330
1F
100
AcDbEntity
  8
QFN_Bottom
100
AcDbCircle
 10
3.009743235859585
 20
7.934305763939079
 30
0.0
 40
0.1250000027939678
100
AcDbArc
 50
270.0000000000005
 51
89.9999999999992
  0
LINE
  5
7F1
330
1F
100
AcDbEntity
  8
QFN_Bottom
100
AcDbLine
 10
2.534743155207067
 20
8.059305733205409
 30
0.0
 11
3.009743290248843
 21
8.059305733205409
 31
0.0
  0
ARC
  5
7F2
330
1F
100
AcDbEntity
  8
PCB_Soldermask
100
AcDbCircle
 10
3.009743235859585
 20
7.434305787222143
 30
0.0
 40
0.1850000041350725
100
AcDbArc
 50
270.0000000000002
 51
89.99999999999944
  0
LINE
  5
7F3
330
1F
100
AcDbEntity
  8
PCB_Soldermask
100
AcDbLine
 10
2.474743162657647
 20
7.249305833788249
 30
0.0
 11
3.009743290248843
 21
7.249305833788249
 31
0.0
  0
LINE
  5
7F4
330
1F
100
AcDbEntity
  8
PCB_Soldermask
100
AcDbLine
 10
2.474743162657647
 20
7.619305749037893
 30
0.0
 11
2.474743162657647
 21
7.249305833788249
 31
0.0
  0
LINE
  5
7F5
330
1F
100
AcDbEntity
  8
PCB_Soldermask
100
AcDbLine
 10
3.009743290248843
 20
7.619305749037893
 30
0.0
 11
2.474743162657647
 21
7.619305749037893
 31
0.0
  0
LINE
  5
7F6
330
1F
100
AcDbEntity
  8
PCB_Pads
100
AcDbLine
 10
2.534743155207067
 20
7.309305826337669
 30
0.0
 11
2.534743155207067
 21
7.559305756488474
 31
0.0
  0
LINE
  5
7F7
330
1F
100
AcDbEntity
  8
PCB_Pads
100
AcDbLine
 10
3.009743290248843
 20
7.309305826337669
 30
0.0
 11
2.534743155207067
 21
7.309305826337669
 31
0.0
  0
ARC
  5
7F8
330
1F
100
AcDbEntity
  8
PCB_Pads
100
AcDbCircle
 10
3.009743235859585
 20
7.434305787222143
 30
0.0
 40
0.1250000027939678
100
AcDbArc
 50
270.0000000000005
 51
89.9999999999992
  0
LINE
  5
7F9
330
1F
100
AcDbEntity
  8
PCB_Pads
100
AcDbLine
 10
2.534743155207067
 20
7.559305756488474
 30
0.0
 11
3.009743290248843
 21
7.559305756488474
 31
0.0
  0
LINE
  5
7FA
330
1F
100
AcDbEntity
  8
QFN_Bottom
100
AcDbLine
 10
2.534743155207067
 20
7.309305826337669
 30
0.0
 11
2.534743155207067
 21
7.559305756488474
 31
0.0
  0
LINE
  5
7FB
330
1F
100
AcDbEntity
  8
QFN_Bottom
100
AcDbLine
 10
3.009743290248843
 20
7.309305826337669
 30
0.0
 11
2.534743155207067
 21
7.309305826337669
 31
0.0
  0
ARC
  5
7FC
330
1F
100
AcDbEntity
  8
QFN_Bottom
100
AcDbCircle
 10
3.009743235859585
 20
7.434305787222143
 30
0.0
 40
0.1250000027939678
100
AcDbArc
 50
270.0000000000005
 51
89.9999999999992
  0
LINE
  5
7FD
330
1F
100
AcDbEntity
  8
QFN_Bottom
100
AcDbLine
 10
2.534743155207067
 20
7.559305756488474
 30
0.0
 11
3.009743290248843
 21
7.559305756488474
 31
0.0
  0
ARC
  5
7FE
330
1F
100
AcDbEntity
  8
PCB_Soldermask
100
AcDbCircle
 10
3.009743235859585
 20
6.934305752297546
 30
0.0
 40
0.1850000041350725
100
AcDbArc
 50
270.0000000000002
 51
89.99999999999944
  0
LINE
  5
7FF
330
1F
100
AcDbEntity
  8
PCB_Soldermask
100
AcDbLine
 10
2.474743162657647
 20
6.749305798863652
 30
0.0
 11
3.009743290248843
 21
6.749305798863652
 31
0.0
  0
LINE
  5
800
330
1F
100
AcDbEntity
  8
PCB_Soldermask
100
AcDbLine
 10
2.474743162657647
 20
7.119305714113296
 30
0.0
 11
2.474743162657647
 21
6.749305798863652
 31
0.0
  0
LINE
  5
801
330
1F
100
AcDbEntity
  8
PCB_Soldermask
100
AcDbLine
 10
3.009743290248843
 20
7.119305714113296
 30
0.0
 11
2.474743162657647
 21
7.119305714113296
 31
0.0
  0
LINE
  5
802
330
1F
100
AcDbEntity
  8
PCB_Pads
100
AcDbLine
 10
2.534743155207067
 20
6.809305791413072
 30
0.0
 11
2.534743155207067
 21
7.059305721563877
 31
0.0
  0
LINE
  5
803
330
1F
100
AcDbEntity
  8
PCB_Pads
100
AcDbLine
 10
3.009743290248843
 20
6.809305791413072
 30
0.0
 11
2.534743155207067
 21
6.809305791413072
 31
0.0
  0
ARC
  5
804
330
1F
100
AcDbEntity
  8
PCB_Pads
100
AcDbCircle
 10
3.009743235859585
 20
6.934305752297546
 30
0.0
 40
0.1250000027939678
100
AcDbArc
 50
270.0000000000005
 51
89.9999999999992
  0
LINE
  5
805
330
1F
100
AcDbEntity
  8
PCB_Pads
100
AcDbLine
 10
2.534743155207067
 20
7.059305721563877
 30
0.0
 11
3.009743290248843
 21
7.059305721563877
 31
0.0
  0
LINE
  5
806
330
1F
100
AcDbEntity
  8
QFN_Bottom
100
AcDbLine
 10
2.534743155207067
 20
6.809305791413072
 30
0.0
 11
2.534743155207067
 21
7.059305721563877
 31
0.0
  0
LINE
  5
807
330
1F
100
AcDbEntity
  8
QFN_Bottom
100
AcDbLine
 10
3.009743290248843
 20
6.809305791413072
 30
0.0
 11
2.534743155207067
 21
6.809305791413072
 31
0.0
  0
ARC
  5
808
330
1F
100
AcDbEntity
  8
QFN_Bottom
100
AcDbCircle
 10
3.009743235859585
 20
6.934305752297546
 30
0.0
 40
0.1250000027939678
100
AcDbArc
 50
270.0000000000005
 51
89.9999999999992
  0
LINE
  5
809
330
1F
100
AcDbEntity
  8
QFN_Bottom
100
AcDbLine
 10
2.534743155207067
 20
7.059305721563877
 30
0.0
 11
3.009743290248843
 21
7.059305721563877
 31
0.0
  0
ARC
  5
80A
330
1F
100
AcDbEntity
  8
PCB_Soldermask
100
AcDbCircle
 10
3.009743235859585
 20
6.43430574647678
 30
0.0
 40
0.1850000041350725
100
AcDbArc
 50
270.0000000000002
 51
89.99999999999944
  0
LINE
  5
80B
330
1F
100
AcDbEntity
  8
PCB_Soldermask
100
AcDbLine
 10
2.474743162657647
 20
6.249305793042886
 30
0.0
 11
3.009743290248843
 21
6.249305793042886
 31
0.0
  0
LINE
  5
80C
330
1F
100
AcDbEntity
  8
PCB_Soldermask
100
AcDbLine
 10
2.474743162657647
 20
6.61930570829253
 30
0.0
 11
2.474743162657647
 21
6.249305793042886
 31
0.0
  0
LINE
  5
80D
330
1F
100
AcDbEntity
  8
PCB_Soldermask
100
AcDbLine
 10
3.009743290248843
 20
6.61930570829253
 30
0.0
 11
2.474743162657647
 21
6.61930570829253
 31
0.0
  0
LINE
  5
80E
330
1F
100
AcDbEntity
  8
PCB_Pads
100
AcDbLine
 10
2.534743155207067
 20
6.309305785592306
 30
0.0
 11
2.534743155207067
 21
6.559305715743111
 31
0.0
  0
LINE
  5
80F
330
1F
100
AcDbEntity
  8
PCB_Pads
100
AcDbLine
 10
3.009743290248843
 20
6.309305785592306
 30
0.0
 11
2.534743155207067
 21
6.309305785592306
 31
0.0
  0
ARC
  5
810
330
1F
100
AcDbEntity
  8
PCB_Pads
100
AcDbCircle
 10
3.009743235859585
 20
6.43430574647678
 30
0.0
 40
0.1250000027939678
100
AcDbArc
 50
270.0000000000005
 51
89.9999999999992
  0
LINE
  5
811
330
1F
100
AcDbEntity
  8
PCB_Pads
100
AcDbLine
 10
2.534743155207067
 20
6.559305715743111
 30
0.0
 11
3.009743290248843
 21
6.559305715743111
 31
0.0
  0
LINE
  5
812
330
1F
100
AcDbEntity
  8
QFN_Bottom
100
AcDbLine
 10
2.534743155207067
 20
6.309305785592306
 30
0.0
 11
2.534743155207067
 21
6.559305715743111
 31
0.0
  0
LINE
  5
813
330
1F
100
AcDbEntity
  8
QFN_Bottom
100
AcDbLine
 10
3.009743290248843
 20
6.309305785592306
 30
0.0
 11
2.534743155207067
 21
6.309305785592306
 31
0.0
  0
ARC
  5
814
330
1F
100
AcDbEntity
  8
QFN_Bottom
100
AcDbCircle
 10
3.009743235859585
 20
6.43430574647678
 30
0.0
 40
0.1250000027939678
100
AcDbArc
 50
270.0000000000005
 51
89.9999999999992
  0
LINE
  5
815
330
1F
100
AcDbEntity
  8
QFN_Bottom
100
AcDbLine
 10
2.534743155207067
 20
6.559305715743111
 30
0.0
 11
3.009743290248843
 21
6.559305715743111
 31
0.0
  0
ARC
  5
816
330
1F
100
AcDbEntity
  8
PCB_Soldermask
100
AcDbCircle
 10
3.009743235859585
 20
5.934305740656014
 30
0.0
 40
0.1850000041350725
100
AcDbArc
 50
270.0000000000002
 51
89.99999999999944
  0
LINE
  5
817
330
1F
100
AcDbEntity
  8
PCB_Soldermask
100
AcDbLine
 10
2.474743162657647
 20
5.74930578722212
 30
0.0
 11
3.009743290248843
 21
5.74930578722212
 31
0.0
  0
LINE
  5
818
330
1F
100
AcDbEntity
  8
PCB_Soldermask
100
AcDbLine
 10
2.474743162657647
 20
6.119305702471764
 30
0.0
 11
2.474743162657647
 21
5.74930578722212
 31
0.0
  0
LINE
  5
819
330
1F
100
AcDbEntity
  8
PCB_Soldermask
100
AcDbLine
 10
3.009743290248843
 20
6.119305702471764
 30
0.0
 11
2.474743162657647
 21
6.119305702471764
 31
0.0
  0
LINE
  5
81A
330
1F
100
AcDbEntity
  8
PCB_Pads
100
AcDbLine
 10
2.534743155207067
 20
5.809305779771539
 30
0.0
 11
2.534743155207067
 21
6.059305709922345
 31
0.0
  0
LINE
  5
81B
330
1F
100
AcDbEntity
  8
PCB_Pads
100
AcDbLine
 10
3.009743290248843
 20
5.809305779771539
 30
0.0
 11
2.534743155207067
 21
5.809305779771539
 31
0.0
  0
ARC
  5
81C
330
1F
100
AcDbEntity
  8
PCB_Pads
100
AcDbCircle
 10
3.009743235859585
 20
5.934305740656014
 30
0.0
 40
0.1250000027939678
100
AcDbArc
 50
270.0000000000005
 51
89.9999999999992
  0
LINE
  5
81D
330
1F
100
AcDbEntity
  8
PCB_Pads
100
AcDbLine
 10
2.534743155207067
 20
6.059305709922345
 30
0.0
 11
3.009743290248843
 21
6.059305709922345
 31
0.0
  0
LINE
  5
81E
330
1F
100
AcDbEntity
  8
QFN_Bottom
100
AcDbLine
 10
2.534743155207067
 20
5.809305779771539
 30
0.0
 11
2.534743155207067
 21
6.059305709922345
 31
0.0
  0
LINE
  5
81F
330
1F
100
AcDbEntity
  8
QFN_Bottom
100
AcDbLine
 10
3.009743290248843
 20
5.809305779771539
 30
0.0
 11
2.534743155207067
 21
5.809305779771539
 31
0.0
  0
ARC
  5
820
330
1F
100
AcDbEntity
  8
QFN_Bottom
100
AcDbCircle
 10
3.009743235859585
 20
5.934305740656014
 30
0.0
 40
0.1250000027939678
100
AcDbArc
 50
270.0000000000005
 51
89.9999999999992
  0
LINE
  5
821
330
1F
100
AcDbEntity
  8
QFN_Bottom
100
AcDbLine
 10
2.534743155207067
 20
6.059305709922345
 30
0.0
 11
3.009743290248843
 21
6.059305709922345
 31
0.0
  0
ARC
  5
822
330
1F
100
AcDbEntity
  8
PCB_Soldermask
100
AcDbCircle
 10
3.009743235859585
 20
5.434305763939078
 30
0.0
 40
0.1850000041350725
100
AcDbArc
 50
270.0000000000002
 51
89.99999999999944
  0
LINE
  5
823
330
1F
100
AcDbEntity
  8
PCB_Soldermask
100
AcDbLine
 10
2.474743162657647
 20
5.249305810505184
 30
0.0
 11
3.009743290248843
 21
5.249305810505184
 31
0.0
  0
LINE
  5
824
330
1F
100
AcDbEntity
  8
PCB_Soldermask
100
AcDbLine
 10
2.474743162657647
 20
5.619305725754828
 30
0.0
 11
2.474743162657647
 21
5.249305810505184
 31
0.0
  0
LINE
  5
825
330
1F
100
AcDbEntity
  8
PCB_Soldermask
100
AcDbLine
 10
3.009743290248843
 20
5.619305725754828
 30
0.0
 11
2.474743162657647
 21
5.619305725754828
 31
0.0
  0
LINE
  5
826
330
1F
100
AcDbEntity
  8
PCB_Pads
100
AcDbLine
 10
2.534743155207067
 20
5.309305803054604
 30
0.0
 11
2.534743155207067
 21
5.559305733205409
 31
0.0
  0
LINE
  5
827
330
1F
100
AcDbEntity
  8
PCB_Pads
100
AcDbLine
 10
3.009743290248843
 20
5.309305803054604
 30
0.0
 11
2.534743155207067
 21
5.309305803054604
 31
0.0
  0
ARC
  5
828
330
1F
100
AcDbEntity
  8
PCB_Pads
100
AcDbCircle
 10
3.009743235859585
 20
5.434305763939078
 30
0.0
 40
0.1250000027939678
100
AcDbArc
 50
270.0000000000005
 51
89.9999999999992
  0
LINE
  5
829
330
1F
100
AcDbEntity
  8
PCB_Pads
100
AcDbLine
 10
2.534743155207067
 20
5.559305733205409
 30
0.0
 11
3.009743290248843
 21
5.559305733205409
 31
0.0
  0
LINE
  5
82A
330
1F
100
AcDbEntity
  8
QFN_Bottom
100
AcDbLine
 10
2.534743155207067
 20
5.309305803054604
 30
0.0
 11
2.534743155207067
 21
5.559305733205409
 31
0.0
  0
LINE
  5
82B
330
1F
100
AcDbEntity
  8
QFN_Bottom
100
AcDbLine
 10
3.009743290248843
 20
5.309305803054604
 30
0.0
 11
2.534743155207067
 21
5.309305803054604
 31
0.0
  0
ARC
  5
82C
330
1F
100
AcDbEntity
  8
QFN_Bottom
100
AcDbCircle
 10
3.009743235859585
 20
5.434305763939078
 30
0.0
 40
0.1250000027939678
100
AcDbArc
 50
270.0000000000005
 51
89.9999999999992
  0
LINE
  5
82D
330
1F
100
AcDbEntity
  8
QFN_Bottom
100
AcDbLine
 10
2.534743155207067
 20
5.559305733205409
 30
0.0
 11
3.009743290248843
 21
5.559305733205409
 31
0.0
  0
ARC
  5
82E
330
1F
100
AcDbEntity
  8
PCB_Soldermask
100
AcDbCircle
 10
3.009743235859585
 20
4.934305670806819
 30
0.0
 40
0.1850000041350725
100
AcDbArc
 50
270.0000000000002
 51
89.99999999999944
  0
LINE
  5
82F
330
1F
100
AcDbEntity
  8
PCB_Soldermask
100
AcDbLine
 10
2.474743162657647
 20
4.749305717372925
 30
0.0
 11
3.009743290248843
 21
4.749305717372925
 31
0.0
  0
LINE
  5
830
330
1F
100
AcDbEntity
  8
PCB_Soldermask
100
AcDbLine
 10
2.474743162657647
 20
5.119305632622569
 30
0.0
 11
2.474743162657647
 21
4.749305717372925
 31
0.0
  0
LINE
  5
831
330
1F
100
AcDbEntity
  8
PCB_Soldermask
100
AcDbLine
 10
3.009743290248843
 20
5.119305632622569
 30
0.0
 11
2.474743162657647
 21
5.119305632622569
 31
0.0
  0
LINE
  5
832
330
1F
100
AcDbEntity
  8
PCB_Pads
100
AcDbLine
 10
2.534743155207067
 20
4.809305709922345
 30
0.0
 11
2.534743155207067
 21
5.05930564007315
 31
0.0
  0
LINE
  5
833
330
1F
100
AcDbEntity
  8
PCB_Pads
100
AcDbLine
 10
3.009743290248843
 20
4.809305709922345
 30
0.0
 11
2.534743155207067
 21
4.809305709922345
 31
0.0
  0
ARC
  5
834
330
1F
100
AcDbEntity
  8
PCB_Pads
100
AcDbCircle
 10
3.009743235859585
 20
4.934305670806819
 30
0.0
 40
0.1250000027939678
100
AcDbArc
 50
270.0000000000005
 51
89.9999999999992
  0
LINE
  5
835
330
1F
100
AcDbEntity
  8
PCB_Pads
100
AcDbLine
 10
2.534743155207067
 20
5.05930564007315
 30
0.0
 11
3.009743290248843
 21
5.05930564007315
 31
0.0
  0
LINE
  5
836
330
1F
100
AcDbEntity
  8
QFN_Bottom
100
AcDbLine
 10
2.534743155207067
 20
4.809305709922345
 30
0.0
 11
2.534743155207067
 21
5.05930564007315
 31
0.0
  0
LINE
  5
837
330
1F
100
AcDbEntity
  8
QFN_Bottom
100
AcDbLine
 10
3.009743290248843
 20
4.809305709922345
 30
0.0
 11
2.534743155207067
 21
4.809305709922345
 31
0.0
  0
ARC
  5
838
330
1F
100
AcDbEntity
  8
QFN_Bottom
100
AcDbCircle
 10
3.009743235859585
 20
4.934305670806819
 30
0.0
 40
0.1250000027939678
100
AcDbArc
 50
270.0000000000005
 51
89.9999999999992
  0
LINE
  5
839
330
1F
100
AcDbEntity
  8
QFN_Bottom
100
AcDbLine
 10
2.534743155207067
 20
5.05930564007315
 30
0.0
 11
3.009743290248843
 21
5.05930564007315
 31
0.0
  0
ARC
  5
83A
330
1F
100
AcDbEntity
  8
PCB_Soldermask
100
AcDbCircle
 10
3.484743254858562
 20
4.459305660189698
 30
0.0
 40
0.1850000041350725
100
AcDbArc
 50
0.000000000000229
 51
179.9999999999994
  0
LINE
  5
83B
330
1F
100
AcDbEntity
  8
PCB_Soldermask
100
AcDbLine
 10
3.669743208292455
 20
3.924305586987761
 30
0.0
 11
3.669743208292455
 21
4.459305714578957
 31
0.0
  0
LINE
  5
83C
330
1F
100
AcDbEntity
  8
PCB_Soldermask
100
AcDbLine
 10
3.299743293042812
 20
3.924305586987761
 30
0.0
 11
3.669743208292455
 21
3.924305586987761
 31
0.0
  0
LINE
  5
83D
330
1F
100
AcDbEntity
  8
PCB_Soldermask
100
AcDbLine
 10
3.299743293042812
 20
4.459305714578957
 30
0.0
 11
3.299743293042812
 21
3.924305586987761
 31
0.0
  0
LINE
  5
83E
330
1F
100
AcDbEntity
  8
PCB_Pads
100
AcDbLine
 10
3.609743215743037
 20
3.984305579537181
 30
0.0
 11
3.35974328559223
 21
3.984305579537181
 31
0.0
  0
LINE
  5
83F
330
1F
100
AcDbEntity
  8
PCB_Pads
100
AcDbLine
 10
3.609743215743037
 20
4.459305714578957
 30
0.0
 11
3.609743215743037
 21
3.984305579537181
 31
0.0
  0
ARC
  5
840
330
1F
100
AcDbEntity
  8
PCB_Pads
100
AcDbCircle
 10
3.484743254858562
 20
4.459305660189698
 30
0.0
 40
0.1250000027939678
100
AcDbArc
 50
0.0000000000004834
 51
179.9999999999991
  0
LINE
  5
841
330
1F
100
AcDbEntity
  8
PCB_Pads
100
AcDbLine
 10
3.35974328559223
 20
3.984305579537181
 30
0.0
 11
3.35974328559223
 21
4.459305714578957
 31
0.0
  0
LINE
  5
842
330
1F
100
AcDbEntity
  8
QFN_Bottom
100
AcDbLine
 10
3.609743215743037
 20
3.984305579537181
 30
0.0
 11
3.35974328559223
 21
3.984305579537181
 31
0.0
  0
LINE
  5
843
330
1F
100
AcDbEntity
  8
QFN_Bottom
100
AcDbLine
 10
3.609743215743037
 20
4.459305714578957
 30
0.0
 11
3.609743215743037
 21
3.984305579537181
 31
0.0
  0
ARC
  5
844
330
1F
100
AcDbEntity
  8
QFN_Bottom
100
AcDbCircle
 10
3.484743254858562
 20
4.459305660189698
 30
0.0
 40
0.1250000027939678
100
AcDbArc
 50
0.0000000000004834
 51
179.9999999999991
  0
LINE
  5
845
330
1F
100
AcDbEntity
  8
QFN_Bottom
100
AcDbLine
 10
3.35974328559223
 20
3.984305579537181
 30
0.0
 11
3.35974328559223
 21
4.459305714578957
 31
0.0
  0
ARC
  5
846
330
1F
100
AcDbEntity
  8
PCB_Soldermask
100
AcDbCircle
 10
3.984743231575497
 20
4.459305660189698
 30
0.0
 40
0.1850000041350725
100
AcDbArc
 50
0.000000000000229
 51
179.9999999999994
  0
LINE
  5
847
330
1F
100
AcDbEntity
  8
PCB_Soldermask
100
AcDbLine
 10
4.169743185009391
 20
3.924305586987761
 30
0.0
 11
4.169743185009391
 21
4.459305714578957
 31
0.0
  0
LINE
  5
848
330
1F
100
AcDbEntity
  8
PCB_Soldermask
100
AcDbLine
 10
3.799743269759746
 20
3.924305586987761
 30
0.0
 11
4.169743185009391
 21
3.924305586987761
 31
0.0
  0
LINE
  5
849
330
1F
100
AcDbEntity
  8
PCB_Soldermask
100
AcDbLine
 10
3.799743269759746
 20
4.459305714578957
 30
0.0
 11
3.799743269759746
 21
3.924305586987761
 31
0.0
  0
LINE
  5
84A
330
1F
100
AcDbEntity
  8
PCB_Pads
100
AcDbLine
 10
4.109743192459971
 20
3.984305579537181
 30
0.0
 11
3.859743262309166
 21
3.984305579537181
 31
0.0
  0
LINE
  5
84B
330
1F
100
AcDbEntity
  8
PCB_Pads
100
AcDbLine
 10
4.109743192459971
 20
4.459305714578957
 30
0.0
 11
4.109743192459971
 21
3.984305579537181
 31
0.0
  0
ARC
  5
84C
330
1F
100
AcDbEntity
  8
PCB_Pads
100
AcDbCircle
 10
3.984743231575497
 20
4.459305660189698
 30
0.0
 40
0.1250000027939678
100
AcDbArc
 50
0.0000000000004834
 51
179.9999999999991
  0
LINE
  5
84D
330
1F
100
AcDbEntity
  8
PCB_Pads
100
AcDbLine
 10
3.859743262309166
 20
3.984305579537181
 30
0.0
 11
3.859743262309166
 21
4.459305714578957
 31
0.0
  0
LINE
  5
84E
330
1F
100
AcDbEntity
  8
QFN_Bottom
100
AcDbLine
 10
4.109743192459971
 20
3.984305579537181
 30
0.0
 11
3.859743262309166
 21
3.984305579537181
 31
0.0
  0
LINE
  5
84F
330
1F
100
AcDbEntity
  8
QFN_Bottom
100
AcDbLine
 10
4.109743192459971
 20
4.459305714578957
 30
0.0
 11
4.109743192459971
 21
3.984305579537181
 31
0.0
  0
ARC
  5
850
330
1F
100
AcDbEntity
  8
QFN_Bottom
100
AcDbCircle
 10
3.984743231575497
 20
4.459305660189698
 30
0.0
 40
0.1250000027939678
100
AcDbArc
 50
0.0000000000004834
 51
179.9999999999991
  0
LINE
  5
851
330
1F
100
AcDbEntity
  8
QFN_Bottom
100
AcDbLine
 10
3.859743262309166
 20
3.984305579537181
 30
0.0
 11
3.859743262309166
 21
4.459305714578957
 31
0.0
  0
ARC
  5
852
330
1F
100
AcDbEntity
  8
PCB_Soldermask
100
AcDbCircle
 10
4.484743208292433
 20
4.459305660189698
 30
0.0
 40
0.1850000041350725
100
AcDbArc
 50
0.000000000000229
 51
179.9999999999994
  0
LINE
  5
853
330
1F
100
AcDbEntity
  8
PCB_Soldermask
100
AcDbLine
 10
4.669743161726326
 20
3.924305586987761
 30
0.0
 11
4.669743161726326
 21
4.459305714578957
 31
0.0
  0
LINE
  5
854
330
1F
100
AcDbEntity
  8
PCB_Soldermask
100
AcDbLine
 10
4.299743246476682
 20
3.924305586987761
 30
0.0
 11
4.669743161726326
 21
3.924305586987761
 31
0.0
  0
LINE
  5
855
330
1F
100
AcDbEntity
  8
PCB_Soldermask
100
AcDbLine
 10
4.299743246476682
 20
4.459305714578957
 30
0.0
 11
4.299743246476682
 21
3.924305586987761
 31
0.0
  0
LINE
  5
856
330
1F
100
AcDbEntity
  8
PCB_Pads
100
AcDbLine
 10
4.609743169176907
 20
3.984305579537181
 30
0.0
 11
4.359743239026101
 21
3.984305579537181
 31
0.0
  0
LINE
  5
857
330
1F
100
AcDbEntity
  8
PCB_Pads
100
AcDbLine
 10
4.609743169176907
 20
4.459305714578957
 30
0.0
 11
4.609743169176907
 21
3.984305579537181
 31
0.0
  0
ARC
  5
858
330
1F
100
AcDbEntity
  8
PCB_Pads
100
AcDbCircle
 10
4.484743208292433
 20
4.459305660189698
 30
0.0
 40
0.1250000027939678
100
AcDbArc
 50
0.0000000000004834
 51
179.9999999999991
  0
LINE
  5
859
330
1F
100
AcDbEntity
  8
PCB_Pads
100
AcDbLine
 10
4.359743239026101
 20
3.984305579537181
 30
0.0
 11
4.359743239026101
 21
4.459305714578957
 31
0.0
  0
LINE
  5
85A
330
1F
100
AcDbEntity
  8
QFN_Bottom
100
AcDbLine
 10
4.609743169176907
 20
3.984305579537181
 30
0.0
 11
4.359743239026101
 21
3.984305579537181
 31
0.0
  0
LINE
  5
85B
330
1F
100
AcDbEntity
  8
QFN_Bottom
100
AcDbLine
 10
4.609743169176907
 20
4.459305714578957
 30
0.0
 11
4.609743169176907
 21
3.984305579537181
 31
0.0
  0
ARC
  5
85C
330
1F
100
AcDbEntity
  8
QFN_Bottom
100
AcDbCircle
 10
4.484743208292433
 20
4.459305660189698
 30
0.0
 40
0.1250000027939678
100
AcDbArc
 50
0.0000000000004834
 51
179.9999999999991
  0
LINE
  5
85D
330
1F
100
AcDbEntity
  8
QFN_Bottom
100
AcDbLine
 10
4.359743239026101
 20
3.984305579537181
 30
0.0
 11
4.359743239026101
 21
4.459305714578957
 31
0.0
  0
ARC
  5
85E
330
1F
100
AcDbEntity
  8
PCB_Soldermask
100
AcDbCircle
 10
4.98474324321703
 20
4.459305660189698
 30
0.0
 40
0.1850000041350725
100
AcDbArc
 50
0.000000000000229
 51
179.9999999999994
  0
LINE
  5
85F
330
1F
100
AcDbEntity
  8
PCB_Soldermask
100
AcDbLine
 10
5.169743196650924
 20
3.924305586987761
 30
0.0
 11
5.169743196650924
 21
4.459305714578956
 31
0.0
  0
LINE
  5
860
330
1F
100
AcDbEntity
  8
PCB_Soldermask
100
AcDbLine
 10
4.79974328140128
 20
3.924305586987761
 30
0.0
 11
5.169743196650924
 21
3.924305586987761
 31
0.0
  0
LINE
  5
861
330
1F
100
AcDbEntity
  8
PCB_Soldermask
100
AcDbLine
 10
4.79974328140128
 20
4.459305714578957
 30
0.0
 11
4.79974328140128
 21
3.924305586987761
 31
0.0
  0
LINE
  5
862
330
1F
100
AcDbEntity
  8
PCB_Pads
100
AcDbLine
 10
5.109743204101504
 20
3.98430557953718
 30
0.0
 11
4.859743273950699
 21
3.984305579537181
 31
0.0
  0
LINE
  5
863
330
1F
100
AcDbEntity
  8
PCB_Pads
100
AcDbLine
 10
5.109743204101504
 20
4.459305714578956
 30
0.0
 11
5.109743204101504
 21
3.98430557953718
 31
0.0
  0
ARC
  5
864
330
1F
100
AcDbEntity
  8
PCB_Pads
100
AcDbCircle
 10
4.98474324321703
 20
4.459305660189698
 30
0.0
 40
0.1250000027939678
100
AcDbArc
 50
0.0000000000004834
 51
179.9999999999991
  0
LINE
  5
865
330
1F
100
AcDbEntity
  8
PCB_Pads
100
AcDbLine
 10
4.859743273950699
 20
3.984305579537181
 30
0.0
 11
4.859743273950699
 21
4.459305714578957
 31
0.0
  0
LINE
  5
866
330
1F
100
AcDbEntity
  8
QFN_Bottom
100
AcDbLine
 10
5.109743204101504
 20
3.98430557953718
 30
0.0
 11
4.859743273950699
 21
3.984305579537181
 31
0.0
  0
LINE
  5
867
330
1F
100
AcDbEntity
  8
QFN_Bottom
100
AcDbLine
 10
5.109743204101504
 20
4.459305714578956
 30
0.0
 11
5.109743204101504
 21
3.98430557953718
 31
0.0
  0
ARC
  5
868
330
1F
100
AcDbEntity
  8
QFN_Bottom
100
AcDbCircle
 10
4.98474324321703
 20
4.459305660189698
 30
0.0
 40
0.1250000027939678
100
AcDbArc
 50
0.0000000000004834
 51
179.9999999999991
  0
LINE
  5
869
330
1F
100
AcDbEntity
  8
QFN_Bottom
100
AcDbLine
 10
4.859743273950699
 20
3.984305579537181
 30
0.0
 11
4.859743273950699
 21
4.459305714578957
 31
0.0
  0
ARC
  5
86A
330
1F
100
AcDbEntity
  8
PCB_Soldermask
100
AcDbCircle
 10
5.484743249037796
 20
4.459305660189698
 30
0.0
 40
0.1850000041350725
100
AcDbArc
 50
0.000000000000229
 51
179.9999999999994
  0
LINE
  5
86B
330
1F
100
AcDbEntity
  8
PCB_Soldermask
100
AcDbLine
 10
5.66974320247169
 20
3.924305586987761
 30
0.0
 11
5.66974320247169
 21
4.459305714578956
 31
0.0
  0
LINE
  5
86C
330
1F
100
AcDbEntity
  8
PCB_Soldermask
100
AcDbLine
 10
5.299743287222046
 20
3.924305586987761
 30
0.0
 11
5.66974320247169
 21
3.924305586987761
 31
0.0
  0
LINE
  5
86D
330
1F
100
AcDbEntity
  8
PCB_Soldermask
100
AcDbLine
 10
5.299743287222046
 20
4.459305714578956
 30
0.0
 11
5.299743287222046
 21
3.924305586987761
 31
0.0
  0
LINE
  5
86E
330
1F
100
AcDbEntity
  8
PCB_Pads
100
AcDbLine
 10
5.60974320992227
 20
3.98430557953718
 30
0.0
 11
5.359743279771465
 21
3.98430557953718
 31
0.0
  0
LINE
  5
86F
330
1F
100
AcDbEntity
  8
PCB_Pads
100
AcDbLine
 10
5.60974320992227
 20
4.459305714578956
 30
0.0
 11
5.60974320992227
 21
3.98430557953718
 31
0.0
  0
ARC
  5
870
330
1F
100
AcDbEntity
  8
PCB_Pads
100
AcDbCircle
 10
5.484743249037796
 20
4.459305660189698
 30
0.0
 40
0.1250000027939678
100
AcDbArc
 50
0.0000000000004834
 51
179.9999999999991
  0
LINE
  5
871
330
1F
100
AcDbEntity
  8
PCB_Pads
100
AcDbLine
 10
5.359743279771465
 20
3.98430557953718
 30
0.0
 11
5.359743279771465
 21
4.459305714578956
 31
0.0
  0
LINE
  5
872
330
1F
100
AcDbEntity
  8
QFN_Bottom
100
AcDbLine
 10
5.60974320992227
 20
3.98430557953718
 30
0.0
 11
5.359743279771465
 21
3.98430557953718
 31
0.0
  0
LINE
  5
873
330
1F
100
AcDbEntity
  8
QFN_Bottom
100
AcDbLine
 10
5.60974320992227
 20
4.459305714578956
 30
0.0
 11
5.60974320992227
 21
3.98430557953718
 31
0.0
  0
ARC
  5
874
330
1F
100
AcDbEntity
  8
QFN_Bottom
100
AcDbCircle
 10
5.484743249037796
 20
4.459305660189698
 30
0.0
 40
0.1250000027939678
100
AcDbArc
 50
0.0000000000004834
 51
179.9999999999991
  0
LINE
  5
875
330
1F
100
AcDbEntity
  8
QFN_Bottom
100
AcDbLine
 10
5.359743279771465
 20
3.98430557953718
 30
0.0
 11
5.359743279771465
 21
4.459305714578956
 31
0.0
  0
ARC
  5
876
330
1F
100
AcDbEntity
  8
PCB_Soldermask
100
AcDbCircle
 10
5.984743254858562
 20
4.459305660189698
 30
0.0
 40
0.1850000041350725
100
AcDbArc
 50
0.000000000000229
 51
179.9999999999994
  0
LINE
  5
877
330
1F
100
AcDbEntity
  8
PCB_Soldermask
100
AcDbLine
 10
6.169743208292456
 20
3.924305586987761
 30
0.0
 11
6.169743208292456
 21
4.459305714578956
 31
0.0
  0
LINE
  5
878
330
1F
100
AcDbEntity
  8
PCB_Soldermask
100
AcDbLine
 10
5.799743293042812
 20
3.924305586987761
 30
0.0
 11
6.169743208292456
 21
3.924305586987761
 31
0.0
  0
LINE
  5
879
330
1F
100
AcDbEntity
  8
PCB_Soldermask
100
AcDbLine
 10
5.799743293042812
 20
4.459305714578956
 30
0.0
 11
5.799743293042812
 21
3.924305586987761
 31
0.0
  0
LINE
  5
87A
330
1F
100
AcDbEntity
  8
PCB_Pads
100
AcDbLine
 10
6.109743215743036
 20
3.98430557953718
 30
0.0
 11
5.859743285592231
 21
3.98430557953718
 31
0.0
  0
LINE
  5
87B
330
1F
100
AcDbEntity
  8
PCB_Pads
100
AcDbLine
 10
6.109743215743036
 20
4.459305714578956
 30
0.0
 11
6.109743215743036
 21
3.98430557953718
 31
0.0
  0
ARC
  5
87C
330
1F
100
AcDbEntity
  8
PCB_Pads
100
AcDbCircle
 10
5.984743254858562
 20
4.459305660189698
 30
0.0
 40
0.1250000027939678
100
AcDbArc
 50
0.0000000000004834
 51
179.9999999999991
  0
LINE
  5
87D
330
1F
100
AcDbEntity
  8
PCB_Pads
100
AcDbLine
 10
5.859743285592231
 20
3.98430557953718
 30
0.0
 11
5.859743285592231
 21
4.459305714578956
 31
0.0
  0
LINE
  5
87E
330
1F
100
AcDbEntity
  8
QFN_Bottom
100
AcDbLine
 10
6.109743215743036
 20
3.98430557953718
 30
0.0
 11
5.859743285592231
 21
3.98430557953718
 31
0.0
  0
LINE
  5
87F
330
1F
100
AcDbEntity
  8
QFN_Bottom
100
AcDbLine
 10
6.109743215743036
 20
4.459305714578956
 30
0.0
 11
6.109743215743036
 21
3.98430557953718
 31
0.0
  0
ARC
  5
880
330
1F
100
AcDbEntity
  8
QFN_Bottom
100
AcDbCircle
 10
5.984743254858562
 20
4.459305660189698
 30
0.0
 40
0.1250000027939678
100
AcDbArc
 50
0.0000000000004834
 51
179.9999999999991
  0
LINE
  5
881
330
1F
100
AcDbEntity
  8
QFN_Bottom
100
AcDbLine
 10
5.859743285592231
 20
3.98430557953718
 30
0.0
 11
5.859743285592231
 21
4.459305714578956
 31
0.0
  0
ARC
  5
882
330
1F
100
AcDbEntity
  8
PCB_Soldermask
100
AcDbCircle
 10
6.484743231575498
 20
4.459305660189698
 30
0.0
 40
0.1850000041350725
100
AcDbArc
 50
0.000000000000229
 51
179.9999999999994
  0
LINE
  5
883
330
1F
100
AcDbEntity
  8
PCB_Soldermask
100
AcDbLine
 10
6.669743185009392
 20
3.92430558698776
 30
0.0
 11
6.669743185009392
 21
4.459305714578956
 31
0.0
  0
LINE
  5
884
330
1F
100
AcDbEntity
  8
PCB_Soldermask
100
AcDbLine
 10
6.299743269759748
 20
3.924305586987761
 30
0.0
 11
6.669743185009392
 21
3.92430558698776
 31
0.0
  0
LINE
  5
885
330
1F
100
AcDbEntity
  8
PCB_Soldermask
100
AcDbLine
 10
6.299743269759748
 20
4.459305714578956
 30
0.0
 11
6.299743269759748
 21
3.924305586987761
 31
0.0
  0
LINE
  5
886
330
1F
100
AcDbEntity
  8
PCB_Pads
100
AcDbLine
 10
6.609743192459972
 20
3.98430557953718
 30
0.0
 11
6.359743262309167
 21
3.98430557953718
 31
0.0
  0
LINE
  5
887
330
1F
100
AcDbEntity
  8
PCB_Pads
100
AcDbLine
 10
6.609743192459972
 20
4.459305714578956
 30
0.0
 11
6.609743192459972
 21
3.98430557953718
 31
0.0
  0
ARC
  5
888
330
1F
100
AcDbEntity
  8
PCB_Pads
100
AcDbCircle
 10
6.484743231575498
 20
4.459305660189698
 30
0.0
 40
0.1250000027939678
100
AcDbArc
 50
0.0000000000004834
 51
179.9999999999991
  0
LINE
  5
889
330
1F
100
AcDbEntity
  8
PCB_Pads
100
AcDbLine
 10
6.359743262309167
 20
3.98430557953718
 30
0.0
 11
6.359743262309167
 21
4.459305714578956
 31
0.0
  0
LINE
  5
88A
330
1F
100
AcDbEntity
  8
QFN_Bottom
100
AcDbLine
 10
6.609743192459972
 20
3.98430557953718
 30
0.0
 11
6.359743262309167
 21
3.98430557953718
 31
0.0
  0
LINE
  5
88B
330
1F
100
AcDbEntity
  8
QFN_Bottom
100
AcDbLine
 10
6.609743192459972
 20
4.459305714578956
 30
0.0
 11
6.609743192459972
 21
3.98430557953718
 31
0.0
  0
ARC
  5
88C
330
1F
100
AcDbEntity
  8
QFN_Bottom
100
AcDbCircle
 10
6.484743231575498
 20
4.459305660189698
 30
0.0
 40
0.1250000027939678
100
AcDbArc
 50
0.0000000000004834
 51
179.9999999999991
  0
LINE
  5
88D
330
1F
100
AcDbEntity
  8
QFN_Bottom
100
AcDbLine
 10
6.359743262309167
 20
3.98430557953718
 30
0.0
 11
6.359743262309167
 21
4.459305714578956
 31
0.0
  0
ARC
  5
88E
330
1F
100
AcDbEntity
  8
PCB_Soldermask
100
AcDbCircle
 10
6.984743324707757
 20
4.459305660189698
 30
0.0
 40
0.1850000041350725
100
AcDbArc
 50
0.000000000000229
 51
179.9999999999994
  0
LINE
  5
88F
330
1F
100
AcDbEntity
  8
PCB_Soldermask
100
AcDbLine
 10
7.169743278141651
 20
3.92430558698776
 30
0.0
 11
7.169743278141651
 21
4.459305714578956
 31
0.0
  0
LINE
  5
890
330
1F
100
AcDbEntity
  8
PCB_Soldermask
100
AcDbLine
 10
6.799743362892007
 20
3.92430558698776
 30
0.0
 11
7.169743278141651
 21
3.92430558698776
 31
0.0
  0
LINE
  5
891
330
1F
100
AcDbEntity
  8
PCB_Soldermask
100
AcDbLine
 10
6.799743362892007
 20
4.459305714578956
 30
0.0
 11
6.799743362892007
 21
3.92430558698776
 31
0.0
  0
LINE
  5
892
330
1F
100
AcDbEntity
  8
PCB_Pads
100
AcDbLine
 10
7.109743285592231
 20
3.98430557953718
 30
0.0
 11
6.859743355441426
 21
3.98430557953718
 31
0.0
  0
LINE
  5
893
330
1F
100
AcDbEntity
  8
PCB_Pads
100
AcDbLine
 10
7.109743285592231
 20
4.459305714578956
 30
0.0
 11
7.109743285592231
 21
3.98430557953718
 31
0.0
  0
ARC
  5
894
330
1F
100
AcDbEntity
  8
PCB_Pads
100
AcDbCircle
 10
6.984743324707757
 20
4.459305660189698
 30
0.0
 40
0.1250000027939678
100
AcDbArc
 50
0.0000000000004834
 51
179.9999999999991
  0
LINE
  5
895
330
1F
100
AcDbEntity
  8
PCB_Pads
100
AcDbLine
 10
6.859743355441426
 20
3.98430557953718
 30
0.0
 11
6.859743355441426
 21
4.459305714578956
 31
0.0
  0
LINE
  5
896
330
1F
100
AcDbEntity
  8
QFN_Bottom
100
AcDbLine
 10
7.109743285592231
 20
3.98430557953718
 30
0.0
 11
6.859743355441426
 21
3.98430557953718
 31
0.0
  0
LINE
  5
897
330
1F
100
AcDbEntity
  8
QFN_Bottom
100
AcDbLine
 10
7.109743285592231
 20
4.459305714578956
 30
0.0
 11
7.109743285592231
 21
3.98430557953718
 31
0.0
  0
ARC
  5
898
330
1F
100
AcDbEntity
  8
QFN_Bottom
100
AcDbCircle
 10
6.984743324707757
 20
4.459305660189698
 30
0.0
 40
0.1250000027939678
100
AcDbArc
 50
0.0000000000004834
 51
179.9999999999991
  0
LINE
  5
899
330
1F
100
AcDbEntity
  8
QFN_Bottom
100
AcDbLine
 10
6.859743355441426
 20
3.98430557953718
 30
0.0
 11
6.859743355441426
 21
4.459305714578956
 31
0.0
  0
ARC
  5
89A
330
1F
100
AcDbEntity
  8
PCB_Soldermask
100
AcDbCircle
 10
7.459743335324876
 20
4.934305679188675
 30
0.0
 40
0.1850000041350725
100
AcDbArc
 50
90.00000000000019
 51
269.9999999999994
  0
LINE
  5
89B
330
1F
100
AcDbEntity
  8
PCB_Soldermask
100
AcDbLine
 10
7.994743408526813
 20
5.119305632622568
 30
0.0
 11
7.459743280935618
 21
5.119305632622568
 31
0.0
  0
LINE
  5
89C
330
1F
100
AcDbEntity
  8
PCB_Soldermask
100
AcDbLine
 10
7.994743408526813
 20
4.749305717372925
 30
0.0
 11
7.994743408526813
 21
5.119305632622568
 31
0.0
  0
LINE
  5
89D
330
1F
100
AcDbEntity
  8
PCB_Soldermask
100
AcDbLine
 10
7.459743280935618
 20
4.749305717372925
 30
0.0
 11
7.994743408526813
 21
4.749305717372925
 31
0.0
  0
LINE
  5
89E
330
1F
100
AcDbEntity
  8
PCB_Pads
100
AcDbLine
 10
7.934743415977393
 20
5.05930564007315
 30
0.0
 11
7.934743415977393
 21
4.809305709922343
 31
0.0
  0
LINE
  5
89F
330
1F
100
AcDbEntity
  8
PCB_Pads
100
AcDbLine
 10
7.459743280935618
 20
5.05930564007315
 30
0.0
 11
7.934743415977393
 21
5.05930564007315
 31
0.0
  0
ARC
  5
8A0
330
1F
100
AcDbEntity
  8
PCB_Pads
100
AcDbCircle
 10
7.459743335324876
 20
4.934305679188675
 30
0.0
 40
0.1250000027939678
100
AcDbArc
 50
90.00000000000049
 51
269.9999999999992
  0
LINE
  5
8A1
330
1F
100
AcDbEntity
  8
PCB_Pads
100
AcDbLine
 10
7.934743415977393
 20
4.809305709922343
 30
0.0
 11
7.459743280935618
 21
4.809305709922343
 31
0.0
  0
LINE
  5
8A2
330
1F
100
AcDbEntity
  8
QFN_Bottom
100
AcDbLine
 10
7.934743415977393
 20
5.05930564007315
 30
0.0
 11
7.934743415977393
 21
4.809305709922343
 31
0.0
  0
LINE
  5
8A3
330
1F
100
AcDbEntity
  8
QFN_Bottom
100
AcDbLine
 10
7.459743280935618
 20
5.05930564007315
 30
0.0
 11
7.934743415977393
 21
5.05930564007315
 31
0.0
  0
ARC
  5
8A4
330
1F
100
AcDbEntity
  8
QFN_Bottom
100
AcDbCircle
 10
7.459743335324876
 20
4.934305679188675
 30
0.0
 40
0.1250000027939678
100
AcDbArc
 50
90.00000000000049
 51
269.9999999999992
  0
LINE
  5
8A5
330
1F
100
AcDbEntity
  8
QFN_Bottom
100
AcDbLine
 10
7.934743415977393
 20
4.809305709922343
 30
0.0
 11
7.459743280935618
 21
4.809305709922343
 31
0.0
  0
ARC
  5
8A6
330
1F
100
AcDbEntity
  8
PCB_Soldermask
100
AcDbCircle
 10
7.459743335324876
 20
5.434305655905609
 30
0.0
 40
0.1850000041350725
100
AcDbArc
 50
90.00000000000019
 51
269.9999999999994
  0
LINE
  5
8A7
330
1F
100
AcDbEntity
  8
PCB_Soldermask
100
AcDbLine
 10
7.994743408526813
 20
5.619305609339503
 30
0.0
 11
7.459743280935619
 21
5.619305609339503
 31
0.0
  0
LINE
  5
8A8
330
1F
100
AcDbEntity
  8
PCB_Soldermask
100
AcDbLine
 10
7.994743408526813
 20
5.249305694089859
 30
0.0
 11
7.994743408526813
 21
5.619305609339503
 31
0.0
  0
LINE
  5
8A9
330
1F
100
AcDbEntity
  8
PCB_Soldermask
100
AcDbLine
 10
7.459743280935619
 20
5.249305694089859
 30
0.0
 11
7.994743408526813
 21
5.249305694089859
 31
0.0
  0
LINE
  5
8AA
330
1F
100
AcDbEntity
  8
PCB_Pads
100
AcDbLine
 10
7.934743415977394
 20
5.559305616790083
 30
0.0
 11
7.934743415977394
 21
5.309305686639278
 31
0.0
  0
LINE
  5
8AB
330
1F
100
AcDbEntity
  8
PCB_Pads
100
AcDbLine
 10
7.459743280935619
 20
5.559305616790083
 30
0.0
 11
7.934743415977394
 21
5.559305616790083
 31
0.0
  0
ARC
  5
8AC
330
1F
100
AcDbEntity
  8
PCB_Pads
100
AcDbCircle
 10
7.459743335324876
 20
5.434305655905609
 30
0.0
 40
0.1250000027939678
100
AcDbArc
 50
90.00000000000049
 51
269.9999999999992
  0
LINE
  5
8AD
330
1F
100
AcDbEntity
  8
PCB_Pads
100
AcDbLine
 10
7.934743415977394
 20
5.309305686639278
 30
0.0
 11
7.459743280935619
 21
5.309305686639278
 31
0.0
  0
LINE
  5
8AE
330
1F
100
AcDbEntity
  8
QFN_Bottom
100
AcDbLine
 10
7.934743415977394
 20
5.559305616790083
 30
0.0
 11
7.934743415977394
 21
5.309305686639278
 31
0.0
  0
LINE
  5
8AF
330
1F
100
AcDbEntity
  8
QFN_Bottom
100
AcDbLine
 10
7.459743280935619
 20
5.559305616790083
 30
0.0
 11
7.934743415977394
 21
5.559305616790083
 31
0.0
  0
ARC
  5
8B0
330
1F
100
AcDbEntity
  8
QFN_Bottom
100
AcDbCircle
 10
7.459743335324876
 20
5.434305655905609
 30
0.0
 40
0.1250000027939678
100
AcDbArc
 50
90.00000000000049
 51
269.9999999999992
  0
LINE
  5
8B1
330
1F
100
AcDbEntity
  8
QFN_Bottom
100
AcDbLine
 10
7.934743415977394
 20
5.309305686639278
 30
0.0
 11
7.459743280935619
 21
5.309305686639278
 31
0.0
  0
ARC
  5
8B2
330
1F
100
AcDbEntity
  8
PCB_Soldermask
100
AcDbCircle
 10
7.459743335324876
 20
5.934305632622544
 30
0.0
 40
0.1850000041350725
100
AcDbArc
 50
90.00000000000019
 51
269.9999999999994
  0
LINE
  5
8B3
330
1F
100
AcDbEntity
  8
PCB_Soldermask
100
AcDbLine
 10
7.994743408526814
 20
6.119305586056438
 30
0.0
 11
7.459743280935619
 21
6.119305586056438
 31
0.0
  0
LINE
  5
8B4
330
1F
100
AcDbEntity
  8
PCB_Soldermask
100
AcDbLine
 10
7.994743408526813
 20
5.749305670806794
 30
0.0
 11
7.994743408526814
 21
6.119305586056438
 31
0.0
  0
LINE
  5
8B5
330
1F
100
AcDbEntity
  8
PCB_Soldermask
100
AcDbLine
 10
7.459743280935619
 20
5.749305670806794
 30
0.0
 11
7.994743408526813
 21
5.749305670806794
 31
0.0
  0
LINE
  5
8B6
330
1F
100
AcDbEntity
  8
PCB_Pads
100
AcDbLine
 10
7.934743415977395
 20
6.059305593507018
 30
0.0
 11
7.934743415977394
 21
5.809305663356213
 31
0.0
  0
LINE
  5
8B7
330
1F
100
AcDbEntity
  8
PCB_Pads
100
AcDbLine
 10
7.459743280935619
 20
6.059305593507018
 30
0.0
 11
7.934743415977395
 21
6.059305593507018
 31
0.0
  0
ARC
  5
8B8
330
1F
100
AcDbEntity
  8
PCB_Pads
100
AcDbCircle
 10
7.459743335324876
 20
5.934305632622544
 30
0.0
 40
0.1250000027939678
100
AcDbArc
 50
90.00000000000049
 51
269.9999999999992
  0
LINE
  5
8B9
330
1F
100
AcDbEntity
  8
PCB_Pads
100
AcDbLine
 10
7.934743415977394
 20
5.809305663356213
 30
0.0
 11
7.459743280935619
 21
5.809305663356213
 31
0.0
  0
LINE
  5
8BA
330
1F
100
AcDbEntity
  8
QFN_Bottom
100
AcDbLine
 10
7.934743415977395
 20
6.059305593507018
 30
0.0
 11
7.934743415977394
 21
5.809305663356213
 31
0.0
  0
LINE
  5
8BB
330
1F
100
AcDbEntity
  8
QFN_Bottom
100
AcDbLine
 10
7.459743280935619
 20
6.059305593507018
 30
0.0
 11
7.934743415977395
 21
6.059305593507018
 31
0.0
  0
ARC
  5
8BC
330
1F
100
AcDbEntity
  8
QFN_Bottom
100
AcDbCircle
 10
7.459743335324876
 20
5.934305632622544
 30
0.0
 40
0.1250000027939678
100
AcDbArc
 50
90.00000000000049
 51
269.9999999999992
  0
LINE
  5
8BD
330
1F
100
AcDbEntity
  8
QFN_Bottom
100
AcDbLine
 10
7.934743415977394
 20
5.809305663356213
 30
0.0
 11
7.459743280935619
 21
5.809305663356213
 31
0.0
  0
ARC
  5
8BE
330
1F
100
AcDbEntity
  8
PCB_Soldermask
100
AcDbCircle
 10
7.459743335324876
 20
6.434305667547142
 30
0.0
 40
0.1850000041350725
100
AcDbArc
 50
90.00000000000019
 51
269.9999999999994
  0
LINE
  5
8BF
330
1F
100
AcDbEntity
  8
PCB_Soldermask
100
AcDbLine
 10
7.994743408526814
 20
6.619305620981036
 30
0.0
 11
7.459743280935619
 21
6.619305620981036
 31
0.0
  0
LINE
  5
8C0
330
1F
100
AcDbEntity
  8
PCB_Soldermask
100
AcDbLine
 10
7.994743408526814
 20
6.249305705731392
 30
0.0
 11
7.994743408526814
 21
6.619305620981036
 31
0.0
  0
LINE
  5
8C1
330
1F
100
AcDbEntity
  8
PCB_Soldermask
100
AcDbLine
 10
7.459743280935619
 20
6.249305705731392
 30
0.0
 11
7.994743408526814
 21
6.249305705731392
 31
0.0
  0
LINE
  5
8C2
330
1F
100
AcDbEntity
  8
PCB_Pads
100
AcDbLine
 10
7.934743415977395
 20
6.559305628431616
 30
0.0
 11
7.934743415977395
 21
6.309305698280811
 31
0.0
  0
LINE
  5
8C3
330
1F
100
AcDbEntity
  8
PCB_Pads
100
AcDbLine
 10
7.459743280935619
 20
6.559305628431616
 30
0.0
 11
7.934743415977395
 21
6.559305628431616
 31
0.0
  0
ARC
  5
8C4
330
1F
100
AcDbEntity
  8
PCB_Pads
100
AcDbCircle
 10
7.459743335324876
 20
6.434305667547142
 30
0.0
 40
0.1250000027939678
100
AcDbArc
 50
90.00000000000049
 51
269.9999999999992
  0
LINE
  5
8C5
330
1F
100
AcDbEntity
  8
PCB_Pads
100
AcDbLine
 10
7.934743415977395
 20
6.309305698280811
 30
0.0
 11
7.459743280935619
 21
6.309305698280811
 31
0.0
  0
LINE
  5
8C6
330
1F
100
AcDbEntity
  8
QFN_Bottom
100
AcDbLine
 10
7.934743415977395
 20
6.559305628431616
 30
0.0
 11
7.934743415977395
 21
6.309305698280811
 31
0.0
  0
LINE
  5
8C7
330
1F
100
AcDbEntity
  8
QFN_Bottom
100
AcDbLine
 10
7.459743280935619
 20
6.559305628431616
 30
0.0
 11
7.934743415977395
 21
6.559305628431616
 31
0.0
  0
ARC
  5
8C8
330
1F
100
AcDbEntity
  8
QFN_Bottom
100
AcDbCircle
 10
7.459743335324876
 20
6.434305667547142
 30
0.0
 40
0.1250000027939678
100
AcDbArc
 50
90.00000000000049
 51
269.9999999999992
  0
LINE
  5
8C9
330
1F
100
AcDbEntity
  8
QFN_Bottom
100
AcDbLine
 10
7.934743415977395
 20
6.309305698280811
 30
0.0
 11
7.459743280935619
 21
6.309305698280811
 31
0.0
  0
ARC
  5
8CA
330
1F
100
AcDbEntity
  8
PCB_Soldermask
100
AcDbCircle
 10
7.459743335324877
 20
6.934305673367908
 30
0.0
 40
0.1850000041350725
100
AcDbArc
 50
90.00000000000019
 51
269.9999999999994
  0
LINE
  5
8CB
330
1F
100
AcDbEntity
  8
PCB_Soldermask
100
AcDbLine
 10
7.994743408526815
 20
7.119305626801802
 30
0.0
 11
7.459743280935619
 21
7.119305626801802
 31
0.0
  0
LINE
  5
8CC
330
1F
100
AcDbEntity
  8
PCB_Soldermask
100
AcDbLine
 10
7.994743408526815
 20
6.749305711552158
 30
0.0
 11
7.994743408526815
 21
7.119305626801802
 31
0.0
  0
LINE
  5
8CD
330
1F
100
AcDbEntity
  8
PCB_Soldermask
100
AcDbLine
 10
7.459743280935619
 20
6.749305711552158
 30
0.0
 11
7.994743408526815
 21
6.749305711552158
 31
0.0
  0
LINE
  5
8CE
330
1F
100
AcDbEntity
  8
PCB_Pads
100
AcDbLine
 10
7.934743415977395
 20
7.059305634252382
 30
0.0
 11
7.934743415977395
 21
6.809305704101577
 31
0.0
  0
LINE
  5
8CF
330
1F
100
AcDbEntity
  8
PCB_Pads
100
AcDbLine
 10
7.459743280935619
 20
7.059305634252382
 30
0.0
 11
7.934743415977395
 21
7.059305634252382
 31
0.0
  0
ARC
  5
8D0
330
1F
100
AcDbEntity
  8
PCB_Pads
100
AcDbCircle
 10
7.459743335324877
 20
6.934305673367908
 30
0.0
 40
0.1250000027939678
100
AcDbArc
 50
90.00000000000049
 51
269.9999999999992
  0
LINE
  5
8D1
330
1F
100
AcDbEntity
  8
PCB_Pads
100
AcDbLine
 10
7.934743415977395
 20
6.809305704101577
 30
0.0
 11
7.459743280935619
 21
6.809305704101577
 31
0.0
  0
LINE
  5
8D2
330
1F
100
AcDbEntity
  8
QFN_Bottom
100
AcDbLine
 10
7.934743415977395
 20
7.059305634252382
 30
0.0
 11
7.934743415977395
 21
6.809305704101577
 31
0.0
  0
LINE
  5
8D3
330
1F
100
AcDbEntity
  8
QFN_Bottom
100
AcDbLine
 10
7.459743280935619
 20
7.059305634252382
 30
0.0
 11
7.934743415977395
 21
7.059305634252382
 31
0.0
  0
ARC
  5
8D4
330
1F
100
AcDbEntity
  8
QFN_Bottom
100
AcDbCircle
 10
7.459743335324877
 20
6.934305673367908
 30
0.0
 40
0.1250000027939678
100
AcDbArc
 50
90.00000000000049
 51
269.9999999999992
  0
LINE
  5
8D5
330
1F
100
AcDbEntity
  8
QFN_Bottom
100
AcDbLine
 10
7.934743415977395
 20
6.809305704101577
 30
0.0
 11
7.459743280935619
 21
6.809305704101577
 31
0.0
  0
ARC
  5
8D6
330
1F
100
AcDbEntity
  8
PCB_Soldermask
100
AcDbCircle
 10
7.459743335324877
 20
7.434305679188674
 30
0.0
 40
0.1850000041350725
100
AcDbArc
 50
90.00000000000019
 51
269.9999999999994
  0
LINE
  5
8D7
330
1F
100
AcDbEntity
  8
PCB_Soldermask
100
AcDbLine
 10
7.994743408526815
 20
7.619305632622568
 30
0.0
 11
7.45974328093562
 21
7.619305632622568
 31
0.0
  0
LINE
  5
8D8
330
1F
100
AcDbEntity
  8
PCB_Soldermask
100
AcDbLine
 10
7.994743408526815
 20
7.249305717372924
 30
0.0
 11
7.994743408526815
 21
7.619305632622568
 31
0.0
  0
LINE
  5
8D9
330
1F
100
AcDbEntity
  8
PCB_Soldermask
100
AcDbLine
 10
7.459743280935619
 20
7.249305717372924
 30
0.0
 11
7.994743408526815
 21
7.249305717372924
 31
0.0
  0
LINE
  5
8DA
330
1F
100
AcDbEntity
  8
PCB_Pads
100
AcDbLine
 10
7.934743415977395
 20
7.559305640073148
 30
0.0
 11
7.934743415977395
 21
7.309305709922343
 31
0.0
  0
LINE
  5
8DB
330
1F
100
AcDbEntity
  8
PCB_Pads
100
AcDbLine
 10
7.45974328093562
 20
7.559305640073148
 30
0.0
 11
7.934743415977395
 21
7.559305640073148
 31
0.0
  0
ARC
  5
8DC
330
1F
100
AcDbEntity
  8
PCB_Pads
100
AcDbCircle
 10
7.459743335324877
 20
7.434305679188674
 30
0.0
 40
0.1250000027939678
100
AcDbArc
 50
90.00000000000049
 51
269.9999999999992
  0
LINE
  5
8DD
330
1F
100
AcDbEntity
  8
PCB_Pads
100
AcDbLine
 10
7.934743415977395
 20
7.309305709922343
 30
0.0
 11
7.459743280935619
 21
7.309305709922343
 31
0.0
  0
LINE
  5
8DE
330
1F
100
AcDbEntity
  8
QFN_Bottom
100
AcDbLine
 10
7.934743415977395
 20
7.559305640073148
 30
0.0
 11
7.934743415977395
 21
7.309305709922343
 31
0.0
  0
LINE
  5
8DF
330
1F
100
AcDbEntity
  8
QFN_Bottom
100
AcDbLine
 10
7.45974328093562
 20
7.559305640073148
 30
0.0
 11
7.934743415977395
 21
7.559305640073148
 31
0.0
  0
ARC
  5
8E0
330
1F
100
AcDbEntity
  8
QFN_Bottom
100
AcDbCircle
 10
7.459743335324877
 20
7.434305679188674
 30
0.0
 40
0.1250000027939678
100
AcDbArc
 50
90.00000000000049
 51
269.9999999999992
  0
LINE
  5
8E1
330
1F
100
AcDbEntity
  8
QFN_Bottom
100
AcDbLine
 10
7.934743415977395
 20
7.309305709922343
 30
0.0
 11
7.459743280935619
 21
7.309305709922343
 31
0.0
  0
ARC
  5
8E2
330
1F
100
AcDbEntity
  8
PCB_Soldermask
100
AcDbCircle
 10
7.459743335324878
 20
7.934305655905609
 30
0.0
 40
0.1850000041350725
100
AcDbArc
 50
90.00000000000019
 51
269.9999999999994
  0
LINE
  5
8E3
330
1F
100
AcDbEntity
  8
PCB_Soldermask
100
AcDbLine
 10
7.994743408526815
 20
8.119305609339503
 30
0.0
 11
7.45974328093562
 21
8.119305609339503
 31
0.0
  0
LINE
  5
8E4
330
1F
100
AcDbEntity
  8
PCB_Soldermask
100
AcDbLine
 10
7.994743408526815
 20
7.749305694089859
 30
0.0
 11
7.994743408526815
 21
8.119305609339503
 31
0.0
  0
LINE
  5
8E5
330
1F
100
AcDbEntity
  8
PCB_Soldermask
100
AcDbLine
 10
7.45974328093562
 20
7.749305694089859
 30
0.0
 11
7.994743408526815
 21
7.749305694089859
 31
0.0
  0
LINE
  5
8E6
330
1F
100
AcDbEntity
  8
PCB_Pads
100
AcDbLine
 10
7.934743415977395
 20
8.059305616790084
 30
0.0
 11
7.934743415977395
 21
7.809305686639278
 31
0.0
  0
LINE
  5
8E7
330
1F
100
AcDbEntity
  8
PCB_Pads
100
AcDbLine
 10
7.45974328093562
 20
8.059305616790084
 30
0.0
 11
7.934743415977395
 21
8.059305616790084
 31
0.0
  0
ARC
  5
8E8
330
1F
100
AcDbEntity
  8
PCB_Pads
100
AcDbCircle
 10
7.459743335324878
 20
7.934305655905609
 30
0.0
 40
0.1250000027939678
100
AcDbArc
 50
90.00000000000049
 51
269.9999999999992
  0
LINE
  5
8E9
330
1F
100
AcDbEntity
  8
PCB_Pads
100
AcDbLine
 10
7.934743415977395
 20
7.809305686639278
 30
0.0
 11
7.45974328093562
 21
7.809305686639278
 31
0.0
  0
LINE
  5
8EA
330
1F
100
AcDbEntity
  8
QFN_Bottom
100
AcDbLine
 10
7.934743415977395
 20
8.059305616790084
 30
0.0
 11
7.934743415977395
 21
7.809305686639278
 31
0.0
  0
LINE
  5
8EB
330
1F
100
AcDbEntity
  8
QFN_Bottom
100
AcDbLine
 10
7.45974328093562
 20
8.059305616790084
 30
0.0
 11
7.934743415977395
 21
8.059305616790084
 31
0.0
  0
ARC
  5
8EC
330
1F
100
AcDbEntity
  8
QFN_Bottom
100
AcDbCircle
 10
7.459743335324878
 20
7.934305655905609
 30
0.0
 40
0.1250000027939678
100
AcDbArc
 50
90.00000000000049
 51
269.9999999999992
  0
LINE
  5
8ED
330
1F
100
AcDbEntity
  8
QFN_Bottom
100
AcDbLine
 10
7.934743415977395
 20
7.809305686639278
 30
0.0
 11
7.45974328093562
 21
7.809305686639278
 31
0.0
  0
ARC
  5
8EE
330
1F
100
AcDbEntity
  8
PCB_Soldermask
100
AcDbCircle
 10
7.459743335324878
 20
8.434305749037868
 30
0.0
 40
0.1850000041350725
100
AcDbArc
 50
90.00000000000019
 51
269.9999999999994
  0
LINE
  5
8EF
330
1F
100
AcDbEntity
  8
PCB_Soldermask
100
AcDbLine
 10
7.994743408526815
 20
8.619305702471763
 30
0.0
 11
7.459743280935621
 21
8.619305702471763
 31
0.0
  0
LINE
  5
8F0
330
1F
100
AcDbEntity
  8
PCB_Soldermask
100
AcDbLine
 10
7.994743408526815
 20
8.24930578722212
 30
0.0
 11
7.994743408526815
 21
8.619305702471763
 31
0.0
  0
LINE
  5
8F1
330
1F
100
AcDbEntity
  8
PCB_Soldermask
100
AcDbLine
 10
7.45974328093562
 20
8.24930578722212
 30
0.0
 11
7.994743408526815
 21
8.24930578722212
 31
0.0
  0
LINE
  5
8F2
330
1F
100
AcDbEntity
  8
PCB_Pads
100
AcDbLine
 10
7.934743415977396
 20
8.559305709922343
 30
0.0
 11
7.934743415977396
 21
8.309305779771538
 31
0.0
  0
LINE
  5
8F3
330
1F
100
AcDbEntity
  8
PCB_Pads
100
AcDbLine
 10
7.459743280935621
 20
8.559305709922343
 30
0.0
 11
7.934743415977396
 21
8.559305709922343
 31
0.0
  0
ARC
  5
8F4
330
1F
100
AcDbEntity
  8
PCB_Pads
100
AcDbCircle
 10
7.459743335324878
 20
8.434305749037868
 30
0.0
 40
0.1250000027939678
100
AcDbArc
 50
90.00000000000049
 51
269.9999999999992
  0
LINE
  5
8F5
330
1F
100
AcDbEntity
  8
PCB_Pads
100
AcDbLine
 10
7.934743415977396
 20
8.309305779771538
 30
0.0
 11
7.459743280935621
 21
8.309305779771538
 31
0.0
  0
LINE
  5
8F6
330
1F
100
AcDbEntity
  8
QFN_Bottom
100
AcDbLine
 10
7.934743415977396
 20
8.559305709922343
 30
0.0
 11
7.934743415977396
 21
8.309305779771538
 31
0.0
  0
LINE
  5
8F7
330
1F
100
AcDbEntity
  8
QFN_Bottom
100
AcDbLine
 10
7.459743280935621
 20
8.559305709922343
 30
0.0
 11
7.934743415977396
 21
8.559305709922343
 31
0.0
  0
ARC
  5
8F8
330
1F
100
AcDbEntity
  8
QFN_Bottom
100
AcDbCircle
 10
7.459743335324878
 20
8.434305749037868
 30
0.0
 40
0.1250000027939678
100
AcDbArc
 50
90.00000000000049
 51
269.9999999999992
  0
LINE
  5
8F9
330
1F
100
AcDbEntity
  8
QFN_Bottom
100
AcDbLine
 10
7.934743415977396
 20
8.309305779771538
 30
0.0
 11
7.459743280935621
 21
8.309305779771538
 31
0.0
  0
ARC
  5
8FA
330
1F
100
AcDbEntity
  8
PCB_Soldermask
100
AcDbCircle
 10
6.984743316325901
 20
8.909305759654987
 30
0.0
 40
0.1850000041350725
100
AcDbArc
 50
180.0000000000002
 51
359.9999999999994
  0
LINE
  5
8FB
330
1F
100
AcDbEntity
  8
PCB_Soldermask
100
AcDbLine
 10
6.79974336289201
 20
9.444305832856926
 30
0.0
 11
6.799743362892008
 21
8.90930570526573
 31
0.0
  0
LINE
  5
8FC
330
1F
100
AcDbEntity
  8
PCB_Soldermask
100
AcDbLine
 10
7.169743278141653
 20
9.444305832856926
 30
0.0
 11
6.79974336289201
 21
9.444305832856926
 31
0.0
  0
LINE
  5
8FD
330
1F
100
AcDbEntity
  8
PCB_Soldermask
100
AcDbLine
 10
7.169743278141651
 20
8.90930570526573
 30
0.0
 11
7.169743278141653
 21
9.444305832856926
 31
0.0
  0
LINE
  5
8FE
330
1F
100
AcDbEntity
  8
PCB_Pads
100
AcDbLine
 10
6.859743355441426
 20
9.384305840307506
 30
0.0
 11
7.109743285592233
 21
9.384305840307506
 31
0.0
  0
LINE
  5
8FF
330
1F
100
AcDbEntity
  8
PCB_Pads
100
AcDbLine
 10
6.859743355441426
 20
8.90930570526573
 30
0.0
 11
6.859743355441426
 21
9.384305840307506
 31
0.0
  0
ARC
  5
900
330
1F
100
AcDbEntity
  8
PCB_Pads
100
AcDbCircle
 10
6.984743316325901
 20
8.909305759654987
 30
0.0
 40
0.1250000027939678
100
AcDbArc
 50
180.0000000000004
 51
359.9999999999991
  0
LINE
  5
901
330
1F
100
AcDbEntity
  8
PCB_Pads
100
AcDbLine
 10
7.109743285592233
 20
9.384305840307506
 30
0.0
 11
7.109743285592233
 21
8.90930570526573
 31
0.0
  0
LINE
  5
902
330
1F
100
AcDbEntity
  8
QFN_Bottom
100
AcDbLine
 10
6.859743355441426
 20
9.384305840307506
 30
0.0
 11
7.109743285592233
 21
9.384305840307506
 31
0.0
  0
LINE
  5
903
330
1F
100
AcDbEntity
  8
QFN_Bottom
100
AcDbLine
 10
6.859743355441426
 20
8.90930570526573
 30
0.0
 11
6.859743355441426
 21
9.384305840307506
 31
0.0
  0
ARC
  5
904
330
1F
100
AcDbEntity
  8
QFN_Bottom
100
AcDbCircle
 10
6.984743316325901
 20
8.909305759654987
 30
0.0
 40
0.1250000027939678
100
AcDbArc
 50
180.0000000000004
 51
359.9999999999991
  0
LINE
  5
905
330
1F
100
AcDbEntity
  8
QFN_Bottom
100
AcDbLine
 10
7.109743285592233
 20
9.384305840307506
 30
0.0
 11
7.109743285592233
 21
8.90930570526573
 31
0.0
  0
ARC
  5
906
330
1F
100
AcDbEntity
  8
PCB_Soldermask
100
AcDbCircle
 10
6.484743339608967
 20
8.909305759654989
 30
0.0
 40
0.1850000041350725
100
AcDbArc
 50
180.0000000000002
 51
359.9999999999994
  0
LINE
  5
907
330
1F
100
AcDbEntity
  8
PCB_Soldermask
100
AcDbLine
 10
6.299743386175074
 20
9.444305832856926
 30
0.0
 11
6.299743386175073
 21
8.90930570526573
 31
0.0
  0
LINE
  5
908
330
1F
100
AcDbEntity
  8
PCB_Soldermask
100
AcDbLine
 10
6.669743301424719
 20
9.444305832856926
 30
0.0
 11
6.299743386175074
 21
9.444305832856926
 31
0.0
  0
LINE
  5
909
330
1F
100
AcDbEntity
  8
PCB_Soldermask
100
AcDbLine
 10
6.669743301424717
 20
8.90930570526573
 30
0.0
 11
6.669743301424719
 21
9.444305832856926
 31
0.0
  0
LINE
  5
90A
330
1F
100
AcDbEntity
  8
PCB_Pads
100
AcDbLine
 10
6.359743378724494
 20
9.384305840307506
 30
0.0
 11
6.609743308875297
 21
9.384305840307506
 31
0.0
  0
LINE
  5
90B
330
1F
100
AcDbEntity
  8
PCB_Pads
100
AcDbLine
 10
6.359743378724493
 20
8.90930570526573
 30
0.0
 11
6.359743378724494
 21
9.384305840307506
 31
0.0
  0
ARC
  5
90C
330
1F
100
AcDbEntity
  8
PCB_Pads
100
AcDbCircle
 10
6.484743339608967
 20
8.909305759654989
 30
0.0
 40
0.1250000027939678
100
AcDbArc
 50
180.0000000000004
 51
359.9999999999991
  0
LINE
  5
90D
330
1F
100
AcDbEntity
  8
PCB_Pads
100
AcDbLine
 10
6.609743308875297
 20
9.384305840307506
 30
0.0
 11
6.609743308875297
 21
8.90930570526573
 31
0.0
  0
LINE
  5
90E
330
1F
100
AcDbEntity
  8
QFN_Bottom
100
AcDbLine
 10
6.359743378724494
 20
9.384305840307506
 30
0.0
 11
6.609743308875297
 21
9.384305840307506
 31
0.0
  0
LINE
  5
90F
330
1F
100
AcDbEntity
  8
QFN_Bottom
100
AcDbLine
 10
6.359743378724493
 20
8.90930570526573
 30
0.0
 11
6.359743378724494
 21
9.384305840307506
 31
0.0
  0
ARC
  5
910
330
1F
100
AcDbEntity
  8
QFN_Bottom
100
AcDbCircle
 10
6.484743339608967
 20
8.909305759654989
 30
0.0
 40
0.1250000027939678
100
AcDbArc
 50
180.0000000000004
 51
359.9999999999991
  0
LINE
  5
911
330
1F
100
AcDbEntity
  8
QFN_Bottom
100
AcDbLine
 10
6.609743308875297
 20
9.384305840307506
 30
0.0
 11
6.609743308875297
 21
8.90930570526573
 31
0.0
  0
ARC
  5
912
330
1F
100
AcDbEntity
  8
PCB_Soldermask
100
AcDbCircle
 10
5.984743362892031
 20
8.909305759654989
 30
0.0
 40
0.1850000041350725
100
AcDbArc
 50
180.0000000000002
 51
359.9999999999994
  0
LINE
  5
913
330
1F
100
AcDbEntity
  8
PCB_Soldermask
100
AcDbLine
 10
5.799743409458138
 20
9.444305832856926
 30
0.0
 11
5.799743409458137
 21
8.909305705265731
 31
0.0
  0
LINE
  5
914
330
1F
100
AcDbEntity
  8
PCB_Soldermask
100
AcDbLine
 10
6.169743324707782
 20
9.444305832856926
 30
0.0
 11
5.799743409458138
 21
9.444305832856926
 31
0.0
  0
LINE
  5
915
330
1F
100
AcDbEntity
  8
PCB_Soldermask
100
AcDbLine
 10
6.169743324707781
 20
8.909305705265731
 30
0.0
 11
6.169743324707782
 21
9.444305832856926
 31
0.0
  0
LINE
  5
916
330
1F
100
AcDbEntity
  8
PCB_Pads
100
AcDbLine
 10
5.859743402007558
 20
9.384305840307508
 30
0.0
 11
6.109743332158363
 21
9.384305840307508
 31
0.0
  0
LINE
  5
917
330
1F
100
AcDbEntity
  8
PCB_Pads
100
AcDbLine
 10
5.859743402007557
 20
8.909305705265731
 30
0.0
 11
5.859743402007558
 21
9.384305840307508
 31
0.0
  0
ARC
  5
918
330
1F
100
AcDbEntity
  8
PCB_Pads
100
AcDbCircle
 10
5.984743362892031
 20
8.909305759654989
 30
0.0
 40
0.1250000027939678
100
AcDbArc
 50
180.0000000000004
 51
359.9999999999991
  0
LINE
  5
919
330
1F
100
AcDbEntity
  8
PCB_Pads
100
AcDbLine
 10
6.109743332158363
 20
9.384305840307508
 30
0.0
 11
6.109743332158362
 21
8.909305705265731
 31
0.0
  0
LINE
  5
91A
330
1F
100
AcDbEntity
  8
QFN_Bottom
100
AcDbLine
 10
5.859743402007558
 20
9.384305840307508
 30
0.0
 11
6.109743332158363
 21
9.384305840307508
 31
0.0
  0
LINE
  5
91B
330
1F
100
AcDbEntity
  8
QFN_Bottom
100
AcDbLine
 10
5.859743402007557
 20
8.909305705265731
 30
0.0
 11
5.859743402007558
 21
9.384305840307508
 31
0.0
  0
ARC
  5
91C
330
1F
100
AcDbEntity
  8
QFN_Bottom
100
AcDbCircle
 10
5.984743362892031
 20
8.909305759654989
 30
0.0
 40
0.1250000027939678
100
AcDbArc
 50
180.0000000000004
 51
359.9999999999991
  0
LINE
  5
91D
330
1F
100
AcDbEntity
  8
QFN_Bottom
100
AcDbLine
 10
6.109743332158363
 20
9.384305840307508
 30
0.0
 11
6.109743332158362
 21
8.909305705265731
 31
0.0
  0
ARC
  5
91E
330
1F
100
AcDbEntity
  8
PCB_Soldermask
100
AcDbCircle
 10
5.484743327967434
 20
8.909305759654989
 30
0.0
 40
0.1850000041350725
100
AcDbArc
 50
180.0000000000002
 51
359.9999999999994
  0
LINE
  5
91F
330
1F
100
AcDbEntity
  8
PCB_Soldermask
100
AcDbLine
 10
5.299743374533541
 20
9.444305832856928
 30
0.0
 11
5.29974337453354
 21
8.909305705265731
 31
0.0
  0
LINE
  5
920
330
1F
100
AcDbEntity
  8
PCB_Soldermask
100
AcDbLine
 10
5.669743289783185
 20
9.444305832856926
 30
0.0
 11
5.299743374533541
 21
9.444305832856928
 31
0.0
  0
LINE
  5
921
330
1F
100
AcDbEntity
  8
PCB_Soldermask
100
AcDbLine
 10
5.669743289783184
 20
8.909305705265731
 30
0.0
 11
5.669743289783185
 21
9.444305832856926
 31
0.0
  0
LINE
  5
922
330
1F
100
AcDbEntity
  8
PCB_Pads
100
AcDbLine
 10
5.359743367082961
 20
9.384305840307508
 30
0.0
 11
5.609743297233766
 21
9.384305840307508
 31
0.0
  0
LINE
  5
923
330
1F
100
AcDbEntity
  8
PCB_Pads
100
AcDbLine
 10
5.35974336708296
 20
8.909305705265731
 30
0.0
 11
5.359743367082961
 21
9.384305840307508
 31
0.0
  0
ARC
  5
924
330
1F
100
AcDbEntity
  8
PCB_Pads
100
AcDbCircle
 10
5.484743327967434
 20
8.909305759654989
 30
0.0
 40
0.1250000027939678
100
AcDbArc
 50
180.0000000000004
 51
359.9999999999991
  0
LINE
  5
925
330
1F
100
AcDbEntity
  8
PCB_Pads
100
AcDbLine
 10
5.609743297233766
 20
9.384305840307508
 30
0.0
 11
5.609743297233765
 21
8.909305705265731
 31
0.0
  0
LINE
  5
926
330
1F
100
AcDbEntity
  8
QFN_Bottom
100
AcDbLine
 10
5.359743367082961
 20
9.384305840307508
 30
0.0
 11
5.609743297233766
 21
9.384305840307508
 31
0.0
  0
LINE
  5
927
330
1F
100
AcDbEntity
  8
QFN_Bottom
100
AcDbLine
 10
5.35974336708296
 20
8.909305705265731
 30
0.0
 11
5.359743367082961
 21
9.384305840307508
 31
0.0
  0
ARC
  5
928
330
1F
100
AcDbEntity
  8
QFN_Bottom
100
AcDbCircle
 10
5.484743327967434
 20
8.909305759654989
 30
0.0
 40
0.1250000027939678
100
AcDbArc
 50
180.0000000000004
 51
359.9999999999991
  0
LINE
  5
929
330
1F
100
AcDbEntity
  8
QFN_Bottom
100
AcDbLine
 10
5.609743297233766
 20
9.384305840307508
 30
0.0
 11
5.609743297233765
 21
8.909305705265731
 31
0.0
  0
ARC
  5
92A
330
1F
100
AcDbEntity
  8
PCB_Soldermask
100
AcDbCircle
 10
4.984743322146668
 20
8.909305759654991
 30
0.0
 40
0.1850000041350725
100
AcDbArc
 50
180.0000000000002
 51
359.9999999999994
  0
LINE
  5
92B
330
1F
100
AcDbEntity
  8
PCB_Soldermask
100
AcDbLine
 10
4.799743368712775
 20
9.444305832856928
 30
0.0
 11
4.799743368712774
 21
8.909305705265733
 31
0.0
  0
LINE
  5
92C
330
1F
100
AcDbEntity
  8
PCB_Soldermask
100
AcDbLine
 10
5.169743283962419
 20
9.444305832856928
 30
0.0
 11
4.799743368712775
 21
9.444305832856928
 31
0.0
  0
LINE
  5
92D
330
1F
100
AcDbEntity
  8
PCB_Soldermask
100
AcDbLine
 10
5.169743283962418
 20
8.909305705265731
 30
0.0
 11
5.169743283962419
 21
9.444305832856928
 31
0.0
  0
LINE
  5
92E
330
1F
100
AcDbEntity
  8
PCB_Pads
100
AcDbLine
 10
4.859743361262195
 20
9.384305840307508
 30
0.0
 11
5.109743291413
 21
9.384305840307508
 31
0.0
  0
LINE
  5
92F
330
1F
100
AcDbEntity
  8
PCB_Pads
100
AcDbLine
 10
4.859743361262194
 20
8.909305705265733
 30
0.0
 11
4.859743361262195
 21
9.384305840307508
 31
0.0
  0
ARC
  5
930
330
1F
100
AcDbEntity
  8
PCB_Pads
100
AcDbCircle
 10
4.984743322146668
 20
8.909305759654991
 30
0.0
 40
0.1250000027939678
100
AcDbArc
 50
180.0000000000004
 51
359.9999999999991
  0
LINE
  5
931
330
1F
100
AcDbEntity
  8
PCB_Pads
100
AcDbLine
 10
5.109743291413
 20
9.384305840307508
 30
0.0
 11
5.109743291412999
 21
8.909305705265731
 31
0.0
  0
LINE
  5
932
330
1F
100
AcDbEntity
  8
QFN_Bottom
100
AcDbLine
 10
4.859743361262195
 20
9.384305840307508
 30
0.0
 11
5.109743291413
 21
9.384305840307508
 31
0.0
  0
LINE
  5
933
330
1F
100
AcDbEntity
  8
QFN_Bottom
100
AcDbLine
 10
4.859743361262194
 20
8.909305705265733
 30
0.0
 11
4.859743361262195
 21
9.384305840307508
 31
0.0
  0
ARC
  5
934
330
1F
100
AcDbEntity
  8
QFN_Bottom
100
AcDbCircle
 10
4.984743322146668
 20
8.909305759654991
 30
0.0
 40
0.1250000027939678
100
AcDbArc
 50
180.0000000000004
 51
359.9999999999991
  0
LINE
  5
935
330
1F
100
AcDbEntity
  8
QFN_Bottom
100
AcDbLine
 10
5.109743291413
 20
9.384305840307508
 30
0.0
 11
5.109743291412999
 21
8.909305705265731
 31
0.0
  0
ARC
  5
936
330
1F
100
AcDbEntity
  8
PCB_Soldermask
100
AcDbCircle
 10
4.484743316325902
 20
8.909305759654991
 30
0.0
 40
0.1850000041350725
100
AcDbArc
 50
180.0000000000002
 51
359.9999999999994
  0
LINE
  5
937
330
1F
100
AcDbEntity
  8
PCB_Soldermask
100
AcDbLine
 10
4.299743362892009
 20
9.444305832856928
 30
0.0
 11
4.299743362892008
 21
8.909305705265733
 31
0.0
  0
LINE
  5
938
330
1F
100
AcDbEntity
  8
PCB_Soldermask
100
AcDbLine
 10
4.669743278141653
 20
9.444305832856928
 30
0.0
 11
4.299743362892009
 21
9.444305832856928
 31
0.0
  0
LINE
  5
939
330
1F
100
AcDbEntity
  8
PCB_Soldermask
100
AcDbLine
 10
4.669743278141652
 20
8.909305705265733
 30
0.0
 11
4.669743278141653
 21
9.444305832856928
 31
0.0
  0
LINE
  5
93A
330
1F
100
AcDbEntity
  8
PCB_Pads
100
AcDbLine
 10
4.359743355441429
 20
9.384305840307508
 30
0.0
 11
4.609743285592234
 21
9.384305840307508
 31
0.0
  0
LINE
  5
93B
330
1F
100
AcDbEntity
  8
PCB_Pads
100
AcDbLine
 10
4.359743355441428
 20
8.909305705265733
 30
0.0
 11
4.359743355441429
 21
9.384305840307508
 31
0.0
  0
ARC
  5
93C
330
1F
100
AcDbEntity
  8
PCB_Pads
100
AcDbCircle
 10
4.484743316325902
 20
8.909305759654991
 30
0.0
 40
0.1250000027939678
100
AcDbArc
 50
180.0000000000004
 51
359.9999999999991
  0
LINE
  5
93D
330
1F
100
AcDbEntity
  8
PCB_Pads
100
AcDbLine
 10
4.609743285592234
 20
9.384305840307508
 30
0.0
 11
4.609743285592233
 21
8.909305705265733
 31
0.0
  0
LINE
  5
93E
330
1F
100
AcDbEntity
  8
QFN_Bottom
100
AcDbLine
 10
4.359743355441429
 20
9.384305840307508
 30
0.0
 11
4.609743285592234
 21
9.384305840307508
 31
0.0
  0
LINE
  5
93F
330
1F
100
AcDbEntity
  8
QFN_Bottom
100
AcDbLine
 10
4.359743355441428
 20
8.909305705265733
 30
0.0
 11
4.359743355441429
 21
9.384305840307508
 31
0.0
  0
ARC
  5
940
330
1F
100
AcDbEntity
  8
QFN_Bottom
100
AcDbCircle
 10
4.484743316325902
 20
8.909305759654991
 30
0.0
 40
0.1250000027939678
100
AcDbArc
 50
180.0000000000004
 51
359.9999999999991
  0
LINE
  5
941
330
1F
100
AcDbEntity
  8
QFN_Bottom
100
AcDbLine
 10
4.609743285592234
 20
9.384305840307508
 30
0.0
 11
4.609743285592233
 21
8.909305705265733
 31
0.0
  0
ARC
  5
942
330
1F
100
AcDbEntity
  8
PCB_Soldermask
100
AcDbCircle
 10
3.984743339608966
 20
8.909305759654991
 30
0.0
 40
0.1850000041350725
100
AcDbArc
 50
180.0000000000002
 51
359.9999999999994
  0
LINE
  5
943
330
1F
100
AcDbEntity
  8
PCB_Soldermask
100
AcDbLine
 10
3.799743386175073
 20
9.44430583285693
 30
0.0
 11
3.799743386175072
 21
8.909305705265733
 31
0.0
  0
LINE
  5
944
330
1F
100
AcDbEntity
  8
PCB_Soldermask
100
AcDbLine
 10
4.169743301424717
 20
9.444305832856928
 30
0.0
 11
3.799743386175073
 21
9.44430583285693
 31
0.0
  0
LINE
  5
945
330
1F
100
AcDbEntity
  8
PCB_Soldermask
100
AcDbLine
 10
4.169743301424716
 20
8.909305705265733
 30
0.0
 11
4.169743301424717
 21
9.444305832856928
 31
0.0
  0
LINE
  5
946
330
1F
100
AcDbEntity
  8
PCB_Pads
100
AcDbLine
 10
3.859743378724493
 20
9.38430584030751
 30
0.0
 11
4.109743308875298
 21
9.38430584030751
 31
0.0
  0
LINE
  5
947
330
1F
100
AcDbEntity
  8
PCB_Pads
100
AcDbLine
 10
3.859743378724492
 20
8.909305705265733
 30
0.0
 11
3.859743378724493
 21
9.38430584030751
 31
0.0
  0
ARC
  5
948
330
1F
100
AcDbEntity
  8
PCB_Pads
100
AcDbCircle
 10
3.984743339608966
 20
8.909305759654991
 30
0.0
 40
0.1250000027939678
100
AcDbArc
 50
180.0000000000004
 51
359.9999999999991
  0
LINE
  5
949
330
1F
100
AcDbEntity
  8
PCB_Pads
100
AcDbLine
 10
4.109743308875298
 20
9.38430584030751
 30
0.0
 11
4.109743308875297
 21
8.909305705265733
 31
0.0
  0
LINE
  5
94A
330
1F
100
AcDbEntity
  8
QFN_Bottom
100
AcDbLine
 10
3.859743378724493
 20
9.38430584030751
 30
0.0
 11
4.109743308875298
 21
9.38430584030751
 31
0.0
  0
LINE
  5
94B
330
1F
100
AcDbEntity
  8
QFN_Bottom
100
AcDbLine
 10
3.859743378724492
 20
8.909305705265733
 30
0.0
 11
3.859743378724493
 21
9.38430584030751
 31
0.0
  0
ARC
  5
94C
330
1F
100
AcDbEntity
  8
QFN_Bottom
100
AcDbCircle
 10
3.984743339608966
 20
8.909305759654991
 30
0.0
 40
0.1250000027939678
100
AcDbArc
 50
180.0000000000004
 51
359.9999999999991
  0
LINE
  5
94D
330
1F
100
AcDbEntity
  8
QFN_Bottom
100
AcDbLine
 10
4.109743308875298
 20
9.38430584030751
 30
0.0
 11
4.109743308875297
 21
8.909305705265733
 31
0.0
  0
ARC
  5
94E
330
1F
100
AcDbEntity
  8
PCB_Soldermask
100
AcDbCircle
 10
3.484743246476707
 20
8.909305759654991
 30
0.0
 40
0.1850000041350725
100
AcDbArc
 50
180.0000000000002
 51
359.9999999999994
  0
LINE
  5
94F
330
1F
100
AcDbEntity
  8
PCB_Soldermask
100
AcDbLine
 10
3.299743293042814
 20
9.44430583285693
 30
0.0
 11
3.299743293042813
 21
8.909305705265733
 31
0.0
  0
LINE
  5
950
330
1F
100
AcDbEntity
  8
PCB_Soldermask
100
AcDbLine
 10
3.669743208292458
 20
9.44430583285693
 30
0.0
 11
3.299743293042814
 21
9.44430583285693
 31
0.0
  0
LINE
  5
951
330
1F
100
AcDbEntity
  8
PCB_Soldermask
100
AcDbLine
 10
3.669743208292457
 20
8.909305705265733
 30
0.0
 11
3.669743208292458
 21
9.44430583285693
 31
0.0
  0
LINE
  5
952
330
1F
100
AcDbEntity
  8
PCB_Pads
100
AcDbLine
 10
3.359743285592234
 20
9.38430584030751
 30
0.0
 11
3.609743215743039
 21
9.38430584030751
 31
0.0
  0
LINE
  5
953
330
1F
100
AcDbEntity
  8
PCB_Pads
100
AcDbLine
 10
3.359743285592233
 20
8.909305705265733
 30
0.0
 11
3.359743285592234
 21
9.38430584030751
 31
0.0
  0
ARC
  5
954
330
1F
100
AcDbEntity
  8
PCB_Pads
100
AcDbCircle
 10
3.484743246476707
 20
8.909305759654991
 30
0.0
 40
0.1250000027939678
100
AcDbArc
 50
180.0000000000004
 51
359.9999999999991
  0
LINE
  5
955
330
1F
100
AcDbEntity
  8
PCB_Pads
100
AcDbLine
 10
3.609743215743039
 20
9.38430584030751
 30
0.0
 11
3.609743215743038
 21
8.909305705265733
 31
0.0
  0
LINE
  5
956
330
1F
100
AcDbEntity
  8
QFN_Bottom
100
AcDbLine
 10
3.359743285592234
 20
9.38430584030751
 30
0.0
 11
3.609743215743039
 21
9.38430584030751
 31
0.0
  0
LINE
  5
957
330
1F
100
AcDbEntity
  8
QFN_Bottom
100
AcDbLine
 10
3.359743285592233
 20
8.909305705265733
 30
0.0
 11
3.359743285592234
 21
9.38430584030751
 31
0.0
  0
ARC
  5
958
330
1F
100
AcDbEntity
  8
QFN_Bottom
100
AcDbCircle
 10
3.484743246476707
 20
8.909305759654991
 30
0.0
 40
0.1250000027939678
100
AcDbArc
 50
180.0000000000004
 51
359.9999999999991
  0
LINE
  5
959
330
1F
100
AcDbEntity
  8
QFN_Bottom
100
AcDbLine
 10
3.609743215743039
 20
9.38430584030751
 30
0.0
 11
3.609743215743038
 21
8.909305705265733
 31
0.0
  0
ENDSEC
  0
SECTION
  2
OBJECTS
  0
DICTIONARY
  5
C
330
0
100
AcDbDictionary
281
     1
  3
ACAD_2007HEADERVARS_RT
350
9D7
  3
ACAD_COLOR
350
45B
  3
ACAD_GROUP
350
D
  3
ACAD_IMAGE_DICT
350
49
  3
ACAD_IMAGE_VARS
350
461
  3
ACAD_LAYOUT
350
1A
  3
ACAD_MATERIAL
350
43F
  3
ACAD_MLEADERSTYLE
350
43D
  3
ACAD_MLINESTYLE
350
17
  3
ACAD_PLOTSETTINGS
350
19
  3
ACAD_PLOTSTYLENAME
350
E
  3
ACAD_SCALELIST
350
62
  3
ACAD_TABLESTYLE
350
43C
  3
ACAD_VISUALSTYLE
350
2A
  3
ACDB_RECOMPOSE_DATA
350
9D5
  3
AcDbVariableDictionary
350
43A
  3
DWGPROPS
350
9D6
  0
DICTIONARY
  5
981
330
2
100
AcDbDictionary
280
     1
281
     1
  3
ACAD_LAYERSTATES
360
982
  0
DICTIONARY
  5
95A
330
10
100
AcDbDictionary
280
     1
281
     1
  3
ADSK_XREC_LAYER_RECONCILED
360
95B
  0
DICTIONARY
  5
95C
330
40
100
AcDbDictionary
280
     1
281
     1
  3
ADSK_XREC_LAYER_RECONCILED
360
95D
  0
DICTIONARY
  5
95E
330
41
100
AcDbDictionary
280
     1
281
     1
  3
ADSK_XREC_LAYER_RECONCILED
360
95F
  0
DICTIONARY
  5
960
330
42
100
AcDbDictionary
280
     1
281
     1
  3
ADSK_XREC_LAYER_RECONCILED
360
961
  0
DICTIONARY
  5
962
330
43
100
AcDbDictionary
280
     1
281
     1
  3
ADSK_XREC_LAYER_RECONCILED
360
963
  0
DICTIONARY
  5
964
330
44
100
AcDbDictionary
280
     1
281
     1
  3
ADSK_XREC_LAYER_RECONCILED
360
965
  0
DICTIONARY
  5
966
330
45
100
AcDbDictionary
280
     1
281
     1
  3
ADSK_XREC_LAYER_RECONCILED
360
967
  0
DICTIONARY
  5
968
330
46
100
AcDbDictionary
280
     1
281
     1
  3
ADSK_XREC_LAYER_RECONCILED
360
969
  0
DICTIONARY
  5
96A
330
47
100
AcDbDictionary
280
     1
281
     1
  3
ADSK_XREC_LAYER_RECONCILED
360
96B
  0
DICTIONARY
  5
96C
330
48
100
AcDbDictionary
280
     1
281
     1
  3
ADSK_XREC_LAYER_RECONCILED
360
96D
  0
DICTIONARY
  5
96E
330
661
100
AcDbDictionary
280
     1
281
     1
  3
ADSK_XREC_LAYER_RECONCILED
360
96F
  0
DICTIONARY
  5
970
330
662
100
AcDbDictionary
280
     1
281
     1
  3
ADSK_XREC_LAYER_RECONCILED
360
971
  0
DICTIONARY
  5
972
330
663
100
AcDbDictionary
280
     1
281
     1
  3
ADSK_XREC_LAYER_RECONCILED
360
973
  0
DICTIONARY
  5
974
330
664
100
AcDbDictionary
280
     1
281
     1
  3
ADSK_XREC_LAYER_RECONCILED
360
975
  0
DICTIONARY
  5
976
330
665
100
AcDbDictionary
280
     1
281
     1
  3
ADSK_XREC_LAYER_RECONCILED
360
977
  0
DICTIONARY
  5
978
330
666
100
AcDbDictionary
280
     1
281
     1
  3
ADSK_XREC_LAYER_RECONCILED
360
979
  0
DICTIONARY
  5
97A
330
667
100
AcDbDictionary
280
     1
281
     1
  3
ADSK_XREC_LAYER_RECONCILED
360
97B
  0
DICTIONARY
  5
97C
330
668
100
AcDbDictionary
280
     1
281
     1
  3
ADSK_XREC_LAYER_RECONCILED
360
97D
  0
DICTIONARY
  5
72B
330
1F
100
AcDbDictionary
280
     1
281
     1
  3
ACAD_SORTENTS
360
72C
  0
IMAGEDEF_REACTOR
  5
4C
330
4B
100
AcDbRasterImageDefReactor
 90
        2
330
4B
  0
DICTIONARY
  5
9D7
102
{ACAD_REACTORS
330
C
102
}
330
C
100
AcDbDictionary
281
     1
  3
INTERFERECOLOR
350
9D8
  0
DICTIONARY
  5
45B
102
{ACAD_REACTORS
330
C
102
}
330
C
100
AcDbDictionary
281
     1
  0
DICTIONARY
  5
D
102
{ACAD_REACTORS
330
C
102
}
330
C
100
AcDbDictionary
281
     1
  0
DICTIONARY
  5
49
102
{ACAD_REACTORS
330
C
102
}
330
C
100
AcDbDictionary
281
     1
  3
C:\!Data\Minds at Work\Martin Hart\Mirror Semiconductor\453250\dxfCF92.bmp
350
4A
  0
RASTERVARIABLES
  5
461
102
{ACAD_REACTORS
330
C
102
}
330
C
100
AcDbRasterVariables
 90
        0
 70
     1
 71
     1
 72
     1
  0
DICTIONARY
  5
1A
102
{ACAD_REACTORS
330
C
102
}
330
C
100
AcDbDictionary
281
     1
  3
Layout1
350
1E
  3
Layout2
350
26
  3
Model
350
22
  0
DICTIONARY
  5
43F
102
{ACAD_REACTORS
330
C
102
}
330
C
100
AcDbDictionary
281
     1
  3
ByBlock
350
448
  3
ByLayer
350
440
  3
Global
350
450
  0
DICTIONARY
  5
43D
102
{ACAD_REACTORS
330
C
102
}
330
C
100
AcDbDictionary
281
     1
  3
Standard
350
45D
  0
DICTIONARY
  5
17
102
{ACAD_REACTORS
330
C
102
}
330
C
100
AcDbDictionary
281
     1
  3
Standard
350
18
  0
DICTIONARY
  5
19
102
{ACAD_REACTORS
330
C
102
}
330
C
100
AcDbDictionary
281
     1
  0
ACDBDICTIONARYWDFLT
  5
E
102
{ACAD_REACTORS
330
C
102
}
330
C
100
AcDbDictionary
281
     1
  3
Normal
350
F
100
AcDbDictionaryWithDefault
340
F
  0
DICTIONARY
  5
62
102
{ACAD_REACTORS
330
C
102
}
330
C
100
AcDbDictionary
281
     1
  3
A0
350
63
  3
A1
350
64
  3
A2
350
65
  3
A3
350
66
  3
A4
350
67
  3
A5
350
68
  3
A6
350
69
  3
A7
350
6A
  3
A8
350
6B
  3
A9
350
6C
  3
B0
350
6D
  3
B1
350
6E
  3
B2
350
6F
  3
B3
350
70
  3
B4
350
71
  3
B5
350
72
  3
B6
350
73
  3
B7
350
74
  3
B8
350
75
  3
B9
350
76
  3
C0
350
77
  3
C1
350
78
  3
C2
350
79
  3
C3
350
7A
  3
C4
350
7B
  3
C5
350
7C
  3
C6
350
7D
  3
C7
350
7E
  3
C8
350
7F
  3
C9
350
80
  3
D0
350
81
  3
D1
350
82
  3
D2
350
83
  0
DICTIONARY
  5
43C
102
{ACAD_REACTORS
330
C
102
}
330
C
100
AcDbDictionary
281
     1
  3
Standard
350
45C
  0
DICTIONARY
  5
2A
102
{ACAD_REACTORS
330
C
102
}
330
C
100
AcDbDictionary
281
     1
  3
2dWireframe
350
2F
  3
3D Hidden
350
31
  3
3dWireframe
350
30
  3
Basic
350
32
  3
Brighten
350
36
  3
ColorChange
350
3A
  3
Conceptual
350
34
  3
Dim
350
35
  3
EdgeColorOff
350
45A
  3
Facepattern
350
39
  3
Flat
350
2B
  3
FlatWithEdges
350
2C
  3
Gouraud
350
2D
  3
GouraudWithEdges
350
2E
  3
JitterOff
350
458
  3
Linepattern
350
38
  3
OverhangOff
350
459
  3
Realistic
350
33
  3
Thicken
350
37
  0
XRECORD
  5
9D5
102
{ACAD_REACTORS
330
C
102
}
330
C
100
AcDbXrecord
280
     1
 90
        1
330
45C
  0
DICTIONARY
  5
43A
102
{ACAD_REACTORS
330
C
102
}
330
C
100
AcDbDictionary
281
     1
  3
CANNOSCALE
350
43B
  3
CMLEADERSTYLE
350
98A
  3
CTABLESTYLE
350
989
  3
DGNFRAME
350
9D0
  3
DIMASSOC
350
9CF
  3
HIDETEXT
350
9CD
  3
INDEXCTL
350
9CC
  3
LAYEREVAL
350
98B
  3
LAYERNOTIFY
350
98C
  3
LIGHTINGUNITS
350
9CA
  3
MSLTSCALE
350
9C9
  3
PSOLHEIGHT
350
9D2
  3
PSOLWIDTH
350
9D1
  3
SORTENTS
350
9CB
  3
XCLIPFRAME
350
9CE
  0
XRECORD
  5
9D6
102
{ACAD_REACTORS
330
C
102
}
330
C
100
AcDbXrecord
280
     1
  1
DWGPROPS COOKIE
  2

  3

  4

  6

  7

  8
JamesMTH
  9

300
=
301
=
302
=
303
=
304
=
305
=
306
=
307
=
308
=
309
=
 40
0.0074347222222222
 41
2455604.861641042
 42
2455626.857506377
  1

 90
        0
  0
DICTIONARY
  5
982
102
{ACAD_REACTORS
330
981
102
}
330
981
100
AcDbDictionary
281
     1
  0
XRECORD
  5
95B
102
{ACAD_REACTORS
330
95A
102
}
330
95A
100
AcDbXrecord
280
     1
290
     1
  0
XRECORD
  5
95D
102
{ACAD_REACTORS
330
95C
102
}
330
95C
100
AcDbXrecord
280
     1
290
     1
  0
XRECORD
  5
95F
102
{ACAD_REACTORS
330
95E
102
}
330
95E
100
AcDbXrecord
280
     1
290
     1
  0
XRECORD
  5
961
102
{ACAD_REACTORS
330
960
102
}
330
960
100
AcDbXrecord
280
     1
290
     1
  0
XRECORD
  5
963
102
{ACAD_REACTORS
330
962
102
}
330
962
100
AcDbXrecord
280
     1
290
     1
  0
XRECORD
  5
965
102
{ACAD_REACTORS
330
964
102
}
330
964
100
AcDbXrecord
280
     1
290
     1
  0
XRECORD
  5
967
102
{ACAD_REACTORS
330
966
102
}
330
966
100
AcDbXrecord
280
     1
290
     1
  0
XRECORD
  5
969
102
{ACAD_REACTORS
330
968
102
}
330
968
100
AcDbXrecord
280
     1
290
     1
  0
XRECORD
  5
96B
102
{ACAD_REACTORS
330
96A
102
}
330
96A
100
AcDbXrecord
280
     1
290
     1
  0
XRECORD
  5
96D
102
{ACAD_REACTORS
330
96C
102
}
330
96C
100
AcDbXrecord
280
     1
290
     1
  0
XRECORD
  5
96F
102
{ACAD_REACTORS
330
96E
102
}
330
96E
100
AcDbXrecord
280
     1
290
     1
  0
XRECORD
  5
971
102
{ACAD_REACTORS
330
970
102
}
330
970
100
AcDbXrecord
280
     1
290
     1
  0
XRECORD
  5
973
102
{ACAD_REACTORS
330
972
102
}
330
972
100
AcDbXrecord
280
     1
290
     1
  0
XRECORD
  5
975
102
{ACAD_REACTORS
330
974
102
}
330
974
100
AcDbXrecord
280
     1
290
     1
  0
XRECORD
  5
977
102
{ACAD_REACTORS
330
976
102
}
330
976
100
AcDbXrecord
280
     1
290
     1
  0
XRECORD
  5
979
102
{ACAD_REACTORS
330
978
102
}
330
978
100
AcDbXrecord
280
     1
290
     1
  0
XRECORD
  5
97B
102
{ACAD_REACTORS
330
97A
102
}
330
97A
100
AcDbXrecord
280
     1
290
     1
  0
XRECORD
  5
97D
102
{ACAD_REACTORS
330
97C
102
}
330
97C
100
AcDbXrecord
280
     1
290
     1
  0
SORTENTSTABLE
  5
72C
102
{ACAD_REACTORS
330
72B
102
}
330
72B
100
AcDbSortentsTable
330
1F
331
73D
  5
401
331
7B7
  5
74D
331
739
  5
3DD
331
7B3
  5
AE
331
735
  5
756
331
774
  5
73F
331
7AF
  5
AA
331
731
  5
75B
331
770
  5
74A
331
7AB
  5
A1
331
136
  5
14B
331
2C5
  5
2DA
331
AE
  5
C3
331
3BF
  5
76F
331
2C1
  5
2D6
331
AA
  5
BF
331
3BB
  5
76B
331
72D
  5
761
331
76C
  5
745
331
7A7
  5
9C
331
768
  5
7A7
331
729
  5
7A1
331
7A3
  5
3C7
331
725
  5
79D
331
764
  5
7A3
331
79F
  5
3C3
331
760
  5
7B6
331
79B
  5
3CD
331
2BD
  5
2D2
331
3B7
  5
767
331
A2
  5
BA
331
9E
  5
B7
331
3AF
  5
763
331
9A
  5
B3
331
75C
  5
7B2
331
3DB
  5
78B
331
58
  5
58
331
797
  5
3C9
331
758
  5
792
331
3D7
  5
787
331
54
  5
54
331
793
  5
727
331
754
  5
7CB
331
3D3
  5
783
331
50
  5
50
331
78F
  5
429
331
750
  5
7C6
331
7CA
  5
7CC
331
78B
  5
72F
331
159
  5
16E
331
310
  5
3BC
331
3CF
  5
77F
331
74C
  5
79B
331
3CB
  5
77B
331
7C6
  5
7AE
331
787
  5
73C
331
748
  5
797
331
3C7
  5
777
331
783
  5
736
331
744
  5
3DA
331
3C3
  5
773
331
77F
  5
3D5
331
740
  5
3D6
331
77B
  5
3D1
331
145
  5
15A
331
141
  5
156
331
30C
  5
3B6
331
393
  5
752
331
13D
  5
152
331
139
  5
14E
331
2C8
  5
2DD
331
73C
  5
3EB
331
7B6
  5
B1
331
777
  5
742
331
738
  5
750
331
7B2
  5
AD
331
773
  5
73E
331
734
  5
758
331
7AE
  5
A9
331
730
  5
75F
331
7AA
  5
9F
331
135
  5
14A
331
2C4
  5
2D9
331
3BE
  5
76E
331
AD
  5
C2
331
2C0
  5
2D5
331
3BA
  5
76A
331
A9
  5
BE
331
76F
  5
748
331
76B
  5
744
331
7A6
  5
9B
331
728
  5
7A0
331
767
  5
7A6
331
7A2
  5
3C6
331
763
  5
7C3
331
79E
  5
3C2
331
79A
  5
3CC
331
3B6
  5
766
331
A1
  5
B9
331
1F4
  5
209
331
3AE
  5
762
331
9D
  5
B6
331
99
  5
B2
331
75F
  5
7B5
331
3DE
  5
78E
331
5B
  5
5B
331
75B
  5
795
331
3DA
  5
78A
331
57
  5
57
331
796
  5
3C8
331
757
  5
791
331
3D6
  5
786
331
53
  5
53
331
792
  5
726
331
753
  5
7CA
331
3D2
  5
782
331
78E
  5
732
331
7CD
  5
BD
331
7C9
  5
7B1
331
78A
  5
72E
331
3A2
  5
75A
331
158
  5
16D
331
4F
  5
4F
331
74F
  5
7C5
331
3CE
  5
77E
331
4B
  5
4B
331
74B
  5
79A
331
3CA
  5
77A
331
786
  5
739
331
7C5
  5
7AD
331
3C6
  5
776
331
747
  5
796
331
782
  5
735
331
3C2
  5
772
331
743
  5
3D9
331
77E
  5
3D4
331
77A
  5
3D0
331
144
  5
159
331
30F
  5
3BB
331
140
  5
155
331
30B
  5
3B5
331
13C
  5
151
331
138
  5
14D
331
73F
  5
41A
331
73B
  5
3DF
331
7B5
  5
B0
331
776
  5
741
331
737
  5
74F
331
7B1
  5
AC
331
772
  5
73D
331
733
  5
757
331
7AD
  5
A8
331
7A9
  5
9E
331
134
  5
149
331
2C7
  5
2DC
331
2C3
  5
2D8
331
3BD
  5
76D
331
AC
  5
C1
331
3B9
  5
769
331
72F
  5
75E
331
76E
  5
747
331
76A
  5
7AA
331
7A5
  5
9A
331
727
  5
79F
331
766
  5
7A5
331
7A1
  5
3C5
331
762
  5
7B8
331
79D
  5
3C1
331
799
  5
3CB
331
2BF
  5
2D4
331
3B5
  5
765
331
9C
  5
B5
331
3DD
  5
78D
331
75E
  5
7B4
331
5A
  5
5A
331
3D9
  5
789
331
75A
  5
794
331
56
  5
56
331
795
  5
729
331
3D5
  5
785
331
756
  5
790
331
52
  5
52
331
791
  5
725
331
3D1
  5
781
331
752
  5
7C8
331
78D
  5
731
331
7CC
  5
BC
331
7C8
  5
7B0
331
789
  5
72D
331
16B
  5
180
331
4E
  5
4E
331
3CD
  5
77D
331
74E
  5
7C4
331
3C9
  5
779
331
74A
  5
799
331
785
  5
738
331
7C4
  5
7AC
331
3C5
  5
775
331
746
  5
3DC
331
781
  5
734
331
3C1
  5
771
331
742
  5
3D8
331
77D
  5
3D3
331
7B8
  5
74E
331
779
  5
3CF
331
147
  5
15C
331
395
  5
755
331
30E
  5
3BA
331
143
  5
158
331
13F
  5
154
331
13B
  5
150
331
2CA
  5
2DF
331
73E
  5
40E
331
7B4
  5
AF
331
73A
  5
3DE
331
775
  5
740
331
7B0
  5
AB
331
736
  5
754
331
771
  5
74B
331
7AC
  5
A2
331
732
  5
759
331
7A8
  5
9D
331
137
  5
14C
331
2C6
  5
2DB
331
AF
  5
C4
331
2C2
  5
2D7
331
3BC
  5
76C
331
AB
  5
C0
331
3B8
  5
768
331
72E
  5
75D
331
76D
  5
746
331
769
  5
7A9
331
7A4
  5
99
331
72A
  5
7A2
331
7A0
  5
3C4
331
726
  5
79E
331
765
  5
7A4
331
79C
  5
3CE
331
761
  5
7B7
331
798
  5
3CA
331
2BE
  5
2D3
331
3B4
  5
764
331
9F
  5
B8
331
3AC
  5
760
331
9B
  5
B4
331
59
  5
59
331
3DC
  5
78C
331
75D
  5
7B3
331
55
  5
55
331
3D8
  5
788
331
794
  5
728
331
759
  5
793
331
51
  5
51
331
3D4
  5
784
331
790
  5
439
331
755
  5
78F
331
3D0
  5
780
331
78C
  5
730
331
7CB
  5
7CD
331
751
  5
7C7
331
788
  5
72A
331
3A4
  5
75C
331
16A
  5
17F
331
311
  5
3BD
331
4D
  5
4D
331
3CC
  5
77C
331
7C7
  5
7AF
331
74D
  5
79C
331
3C8
  5
778
331
784
  5
737
331
7C3
  5
7AB
331
749
  5
798
331
3C4
  5
774
331
780
  5
733
331
745
  5
3DB
331
3C0
  5
770
331
77C
  5
3D2
331
741
  5
3D7
331
778
  5
743
331
146
  5
15B
331
142
  5
157
331
30D
  5
3B7
331
13E
  5
153
331
13A
  5
14F
331
2C9
  5
2DE
  0
XRECORD
  5
9D8
102
{ACAD_REACTORS
330
9D7
102
}
330
9D7
100
AcDbXrecord
280
     1
1004
1800000001000000000000C0000000000000000000000000
  0
IMAGEDEF
  5
4A
102
{ACAD_REACTORS
330
49
330
4C
102
}
330
49
100
AcDbRasterImageDef
 90
        0
  1
C:\!Data\Minds at Work\Martin Hart\Mirror Semiconductor\453250\dxfCF92.bmp
 10
1570.0
 20
942.0
 11
0.2645502645502646
 21
0.2645502645502646
280
     1
281
     3
  0
LAYOUT
  5
1E
102
{ACAD_XDICTIONARY
360
9D9
102
}
102
{ACAD_REACTORS
330
1A
102
}
330
1A
100
AcDbPlotSettings
  1

  2
none_device
  4

  6

 40
0.0
 41
0.0
 42
0.0
 43
0.0
 44
0.0
 45
0.0
 46
0.0
 47
0.0
 48
0.0
 49
0.0
140
0.0
141
0.0
142
1.0
143
1.0
 70
   688
 72
     0
 73
     0
 74
     5
  7

 75
    16
147
1.0
148
0.0
149
0.0
100
AcDbLayout
  1
Layout1
 70
     1
 71
     1
 10
0.0
 20
0.0
 11
420.0
 21
297.0
 12
0.0
 22
0.0
 32
0.0
 14
1.000000000000000E+20
 24
1.000000000000000E+20
 34
1.000000000000000E+20
 15
-1.000000000000000E+20
 25
-1.000000000000000E+20
 35
-1.000000000000000E+20
146
0.0
 13
0.0
 23
0.0
 33
0.0
 16
1.0
 26
0.0
 36
0.0
 17
0.0
 27
1.0
 37
0.0
 76
     0
330
1B
  0
LAYOUT
  5
26
102
{ACAD_XDICTIONARY
360
9DC
102
}
102
{ACAD_REACTORS
330
1A
102
}
330
1A
100
AcDbPlotSettings
  1

  2
none_device
  4

  6

 40
0.0
 41
0.0
 42
0.0
 43
0.0
 44
0.0
 45
0.0
 46
0.0
 47
0.0
 48
0.0
 49
0.0
140
0.0
141
0.0
142
1.0
143
1.0
 70
   688
 72
     0
 73
     0
 74
     5
  7

 75
    16
147
1.0
148
0.0
149
0.0
100
AcDbLayout
  1
Layout2
 70
     1
 71
     2
 10
0.0
 20
0.0
 11
0.0
 21
0.0
 12
0.0
 22
0.0
 32
0.0
 14
0.0
 24
0.0
 34
0.0
 15
0.0
 25
0.0
 35
0.0
146
0.0
 13
0.0
 23
0.0
 33
0.0
 16
1.0
 26
0.0
 36
0.0
 17
0.0
 27
1.0
 37
0.0
 76
     0
330
23
  0
LAYOUT
  5
22
102
{ACAD_XDICTIONARY
360
987
102
}
102
{ACAD_REACTORS
330
1A
102
}
330
1A
100
AcDbPlotSettings
  1

  2
CutePDF Writer.pc3
  4
Letter
  6

 40
3.174999952316284
 41
3.174999952316284
 42
3.17498779296875
 43
3.175003051757812
 44
279.3999938964844
 45
215.8999938964844
 46
0.0
 47
0.6266014685936324
 48
0.0
 49
0.0
140
0.0
141
0.0
142
1.0
143
1.241315917969524
 70
  3764
 72
     0
 73
     0
 74
     1
  7
monochrome.ctb
 75
     0
147
0.8055966942208751
148
-7.363598074972423
149
-7.781979635077834
100
AcDbLayout
  1
Model
 70
     1
 71
     0
 10
0.0
 20
0.0
 11
279.4
 21
215.9
 12
0.0
 22
0.0
 32
0.0
 14
0.0
 24
0.0
 34
0.0
 15
279.4
 25
215.9
 35
0.0
146
0.0
 13
0.0
 23
0.0
 33
0.0
 16
1.0
 26
0.0
 36
0.0
 17
0.0
 27
1.0
 37
0.0
 76
     0
330
1F
331
29
1001
ACAD_PSEXT
1000
CutePDF Writer.pc3
1000
CutePDF Writer
1000
CPW2:
1000

1070
     0
  0
MATERIAL
  5
448
102
{ACAD_XDICTIONARY
360
449
102
}
102
{ACAD_REACTORS
330
43F
102
}
330
43F
100
AcDbMaterial
  1
ByBlock
 72
     0
 43
0.0008202099737533
 43
0.0
 43
0.0
 43
0.0
 43
0.0
 43
0.0008202099737533
 43
0.0
 43
0.0
 43
0.0
 43
0.0
 43
1.0
 43
0.0
 43
0.0
 43
0.0
 43
0.0
 43
1.0
 77
     0
 47
0.0008202099737533
 47
0.0
 47
0.0
 47
0.0
 47
0.0
 47
0.0008202099737533
 47
0.0
 47
0.0
 47
0.0
 47
0.0
 47
1.0
 47
0.0
 47
0.0
 47
0.0
 47
0.0
 47
1.0
171
     0
 49
0.0008202099737533
 49
0.0
 49
0.0
 49
0.0
 49
0.0
 49
0.0008202099737533
 49
0.0
 49
0.0
 49
0.0
 49
0.0
 49
1.0
 49
0.0
 49
0.0
 49
0.0
 49
0.0
 49
1.0
175
     0
142
0.0008202099737533
142
0.0
142
0.0
142
0.0
142
0.0
142
0.0008202099737533
142
0.0
142
0.0
142
0.0
142
0.0
142
1.0
142
0.0
142
0.0
142
0.0
142
0.0
142
1.0
179
     0
144
0.0008202099737533
144
0.0
144
0.0
144
0.0
144
0.0
144
0.0008202099737533
144
0.0
144
0.0
144
0.0
144
0.0
144
1.0
144
0.0
144
0.0
144
0.0
144
0.0
144
1.0
147
0.0008202099737533
147
0.0
147
0.0
147
0.0
147
0.0
147
0.0008202099737533
147
0.0
147
0.0
147
0.0
147
0.0
147
1.0
147
0.0
147
0.0
147
0.0
147
0.0
147
1.0
  0
MATERIAL
  5
440
102
{ACAD_XDICTIONARY
360
441
102
}
102
{ACAD_REACTORS
330
43F
102
}
330
43F
100
AcDbMaterial
  1
ByLayer
 72
     0
 43
0.0008202099737533
 43
0.0
 43
0.0
 43
0.0
 43
0.0
 43
0.0008202099737533
 43
0.0
 43
0.0
 43
0.0
 43
0.0
 43
1.0
 43
0.0
 43
0.0
 43
0.0
 43
0.0
 43
1.0
 77
     0
 47
0.0008202099737533
 47
0.0
 47
0.0
 47
0.0
 47
0.0
 47
0.0008202099737533
 47
0.0
 47
0.0
 47
0.0
 47
0.0
 47
1.0
 47
0.0
 47
0.0
 47
0.0
 47
0.0
 47
1.0
171
     0
 49
0.0008202099737533
 49
0.0
 49
0.0
 49
0.0
 49
0.0
 49
0.0008202099737533
 49
0.0
 49
0.0
 49
0.0
 49
0.0
 49
1.0
 49
0.0
 49
0.0
 49
0.0
 49
0.0
 49
1.0
175
     0
142
0.0008202099737533
142
0.0
142
0.0
142
0.0
142
0.0
142
0.0008202099737533
142
0.0
142
0.0
142
0.0
142
0.0
142
1.0
142
0.0
142
0.0
142
0.0
142
0.0
142
1.0
179
     0
144
0.0008202099737533
144
0.0
144
0.0
144
0.0
144
0.0
144
0.0008202099737533
144
0.0
144
0.0
144
0.0
144
0.0
144
1.0
144
0.0
144
0.0
144
0.0
144
0.0
144
1.0
147
0.0008202099737533
147
0.0
147
0.0
147
0.0
147
0.0
147
0.0008202099737533
147
0.0
147
0.0
147
0.0
147
0.0
147
1.0
147
0.0
147
0.0
147
0.0
147
0.0
147
1.0
  0
MATERIAL
  5
450
102
{ACAD_XDICTIONARY
360
451
102
}
102
{ACAD_REACTORS
330
43F
102
}
330
43F
100
AcDbMaterial
  1
Global
 72
     0
 43
0.0008202099737533
 43
0.0
 43
0.0
 43
0.0
 43
0.0
 43
0.0008202099737533
 43
0.0
 43
0.0
 43
0.0
 43
0.0
 43
1.0
 43
0.0
 43
0.0
 43
0.0
 43
0.0
 43
1.0
 77
     0
 47
0.0008202099737533
 47
0.0
 47
0.0
 47
0.0
 47
0.0
 47
0.0008202099737533
 47
0.0
 47
0.0
 47
0.0
 47
0.0
 47
1.0
 47
0.0
 47
0.0
 47
0.0
 47
0.0
 47
1.0
171
     0
 49
0.0008202099737533
 49
0.0
 49
0.0
 49
0.0
 49
0.0
 49
0.0008202099737533
 49
0.0
 49
0.0
 49
0.0
 49
0.0
 49
1.0
 49
0.0
 49
0.0
 49
0.0
 49
0.0
 49
1.0
175
     0
142
0.0008202099737533
142
0.0
142
0.0
142
0.0
142
0.0
142
0.0008202099737533
142
0.0
142
0.0
142
0.0
142
0.0
142
1.0
142
0.0
142
0.0
142
0.0
142
0.0
142
1.0
179
     0
144
0.0008202099737533
144
0.0
144
0.0
144
0.0
144
0.0
144
0.0008202099737533
144
0.0
144
0.0
144
0.0
144
0.0
144
1.0
144
0.0
144
0.0
144
0.0
144
0.0
144
1.0
147
0.0008202099737533
147
0.0
147
0.0
147
0.0
147
0.0
147
0.0008202099737533
147
0.0
147
0.0
147
0.0
147
0.0
147
1.0
147
0.0
147
0.0
147
0.0
147
0.0
147
1.0
  0
MLEADERSTYLE
  5
45D
102
{ACAD_REACTORS
330
43D
102
}
330
43D
100
AcDbMLeaderStyle
170
     2
171
     1
172
     0
 90
        2
 40
0.0
 41
0.0
173
     1
 91
-1056964608
340
14
 92
       -2
290
     1
 42
2.0
291
     1
 43
0.36
  3
Standard
 44
4.0
300

342
11
174
     1
178
     6
175
     1
176
     0
 93
-1056964608
 45
4.0
292
     0
297
     0
 46
4.0
 94
-1056964608
 47
1.0
 49
1.0
140
1.0
293
     1
141
0.0
294
     1
177
     0
142
1.0
295
     0
296
     0
143
0.125
1001
ACAD_MLEADERVER
1070
     2
  0
MLINESTYLE
  5
18
102
{ACAD_REACTORS
330
17
102
}
330
17
100
AcDbMlineStyle
  2
STANDARD
 70
     0
  3

 62
   256
 51
90.0
 52
90.0
 71
     2
 49
0.5
 62
   256
  6
BYLAYER
 49
-0.5
 62
   256
  6
BYLAYER
  0
ACDBPLACEHOLDER
  5
F
102
{ACAD_REACTORS
330
E
102
}
330
E
  0
SCALE
  5
63
102
{ACAD_REACTORS
330
62
102
}
330
62
100
AcDbScale
 70
     0
300
1:1
140
1.0
141
1.0
290
     1
  0
SCALE
  5
64
102
{ACAD_REACTORS
330
62
102
}
330
62
100
AcDbScale
 70
     0
300
1:2
140
1.0
141
2.0
290
     0
  0
SCALE
  5
65
102
{ACAD_REACTORS
330
62
102
}
330
62
100
AcDbScale
 70
     0
300
1:4
140
1.0
141
4.0
290
     0
  0
SCALE
  5
66
102
{ACAD_REACTORS
330
62
102
}
330
62
100
AcDbScale
 70
     0
300
1:5
140
1.0
141
5.0
290
     0
  0
SCALE
  5
67
102
{ACAD_REACTORS
330
62
102
}
330
62
100
AcDbScale
 70
     0
300
1:8
140
1.0
141
8.0
290
     0
  0
SCALE
  5
68
102
{ACAD_REACTORS
330
62
102
}
330
62
100
AcDbScale
 70
     0
300
1:10
140
1.0
141
10.0
290
     0
  0
SCALE
  5
69
102
{ACAD_REACTORS
330
62
102
}
330
62
100
AcDbScale
 70
     0
300
1:16
140
1.0
141
16.0
290
     0
  0
SCALE
  5
6A
102
{ACAD_REACTORS
330
62
102
}
330
62
100
AcDbScale
 70
     0
300
1:20
140
1.0
141
20.0
290
     0
  0
SCALE
  5
6B
102
{ACAD_REACTORS
330
62
102
}
330
62
100
AcDbScale
 70
     0
300
1:30
140
1.0
141
30.0
290
     0
  0
SCALE
  5
6C
102
{ACAD_REACTORS
330
62
102
}
330
62
100
AcDbScale
 70
     0
300
1:40
140
1.0
141
40.0
290
     0
  0
SCALE
  5
6D
102
{ACAD_REACTORS
330
62
102
}
330
62
100
AcDbScale
 70
     0
300
1:50
140
1.0
141
50.0
290
     0
  0
SCALE
  5
6E
102
{ACAD_REACTORS
330
62
102
}
330
62
100
AcDbScale
 70
     0
300
1:100
140
1.0
141
100.0
290
     0
  0
SCALE
  5
6F
102
{ACAD_REACTORS
330
62
102
}
330
62
100
AcDbScale
 70
     0
300
2:1
140
2.0
141
1.0
290
     0
  0
SCALE
  5
70
102
{ACAD_REACTORS
330
62
102
}
330
62
100
AcDbScale
 70
     0
300
4:1
140
4.0
141
1.0
290
     0
  0
SCALE
  5
71
102
{ACAD_REACTORS
330
62
102
}
330
62
100
AcDbScale
 70
     0
300
8:1
140
8.0
141
1.0
290
     0
  0
SCALE
  5
72
102
{ACAD_REACTORS
330
62
102
}
330
62
100
AcDbScale
 70
     0
300
10:1
140
10.0
141
1.0
290
     0
  0
SCALE
  5
73
102
{ACAD_REACTORS
330
62
102
}
330
62
100
AcDbScale
 70
     0
300
100:1
140
100.0
141
1.0
290
     0
  0
SCALE
  5
74
102
{ACAD_REACTORS
330
62
102
}
330
62
100
AcDbScale
 70
     0
300
1/128" = 1'-0"
140
0.0078125
141
12.0
290
     0
  0
SCALE
  5
75
102
{ACAD_REACTORS
330
62
102
}
330
62
100
AcDbScale
 70
     0
300
1/64" = 1'-0"
140
0.015625
141
12.0
290
     0
  0
SCALE
  5
76
102
{ACAD_REACTORS
330
62
102
}
330
62
100
AcDbScale
 70
     0
300
1/32" = 1'-0"
140
0.03125
141
12.0
290
     0
  0
SCALE
  5
77
102
{ACAD_REACTORS
330
62
102
}
330
62
100
AcDbScale
 70
     0
300
1/16" = 1'-0"
140
0.0625
141
12.0
290
     0
  0
SCALE
  5
78
102
{ACAD_REACTORS
330
62
102
}
330
62
100
AcDbScale
 70
     0
300
3/32" = 1'-0"
140
0.09375
141
12.0
290
     0
  0
SCALE
  5
79
102
{ACAD_REACTORS
330
62
102
}
330
62
100
AcDbScale
 70
     0
300
1/8" = 1'-0"
140
0.125
141
12.0
290
     0
  0
SCALE
  5
7A
102
{ACAD_REACTORS
330
62
102
}
330
62
100
AcDbScale
 70
     0
300
3/16" = 1'-0"
140
0.1875
141
12.0
290
     0
  0
SCALE
  5
7B
102
{ACAD_REACTORS
330
62
102
}
330
62
100
AcDbScale
 70
     0
300
1/4" = 1'-0"
140
0.25
141
12.0
290
     0
  0
SCALE
  5
7C
102
{ACAD_REACTORS
330
62
102
}
330
62
100
AcDbScale
 70
     0
300
3/8" = 1'-0"
140
0.375
141
12.0
290
     0
  0
SCALE
  5
7D
102
{ACAD_REACTORS
330
62
102
}
330
62
100
AcDbScale
 70
     0
300
1/2" = 1'-0"
140
0.5
141
12.0
290
     0
  0
SCALE
  5
7E
102
{ACAD_REACTORS
330
62
102
}
330
62
100
AcDbScale
 70
     0
300
3/4" = 1'-0"
140
0.75
141
12.0
290
     0
  0
SCALE
  5
7F
102
{ACAD_REACTORS
330
62
102
}
330
62
100
AcDbScale
 70
     0
300
1" = 1'-0"
140
1.0
141
12.0
290
     0
  0
SCALE
  5
80
102
{ACAD_REACTORS
330
62
102
}
330
62
100
AcDbScale
 70
     0
300
1-1/2" = 1'-0"
140
1.5
141
12.0
290
     0
  0
SCALE
  5
81
102
{ACAD_REACTORS
330
62
102
}
330
62
100
AcDbScale
 70
     0
300
3" = 1'-0"
140
3.0
141
12.0
290
     0
  0
SCALE
  5
82
102
{ACAD_REACTORS
330
62
102
}
330
62
100
AcDbScale
 70
     0
300
6" = 1'-0"
140
6.0
141
12.0
290
     0
  0
SCALE
  5
83
102
{ACAD_REACTORS
330
62
102
}
330
62
100
AcDbScale
 70
     0
300
1'-0" = 1'-0"
140
12.0
141
12.0
290
     0
  0
TABLESTYLE
  5
45C
102
{ACAD_XDICTIONARY
360
9D3
102
}
102
{ACAD_REACTORS
330
43C
102
}
330
43C
100
AcDbTableStyle
  3
Standard
 70
     0
 71
     0
 40
1.5
 41
1.5
280
     0
281
     0
  7
Standard
140
4.5
170
     2
 62
     0
 63
     7
283
     0
274
    -2
284
     1
 64
     0
275
    -2
285
     1
 65
     0
276
    -2
286
     1
 66
     0
277
    -2
287
     1
 67
     0
278
    -2
288
     1
 68
     0
279
    -2
289
     1
 69
     0
  7
Standard
140
6.0
170
     5
 62
     0
 63
     7
283
     0
274
    -2
284
     1
 64
     0
275
    -2
285
     1
 65
     0
276
    -2
286
     1
 66
     0
277
    -2
287
     1
 67
     0
278
    -2
288
     1
 68
     0
279
    -2
289
     1
 69
     0
  7
Standard
140
4.5
170
     5
 62
     0
 63
     7
283
     0
274
    -2
284
     1
 64
     0
275
    -2
285
     1
 65
     0
276
    -2
286
     1
 66
     0
277
    -2
287
     1
 67
     0
278
    -2
288
     1
 68
     0
279
    -2
289
     1
 69
     0
  0
VISUALSTYLE
  5
2F
102
{ACAD_XDICTIONARY
360
9E6
102
}
102
{ACAD_REACTORS
330
2A
102
}
330
2A
100
AcDbVisualStyle
  2
2dWireframe
 70
     4
 71
     0
 72
     2
 73
     0
 90
        0
 40
-0.6
 41
-30.0
 62
     5
 63
     7
 74
     1
 91
        4
 64
     7
 65
   257
 75
     1
175
     1
 42
1.0
 92
        0
 66
   257
 43
1.0
 76
     1
 77
     6
 78
     2
 67
     7
 79
     5
170
     0
171
     0
290
     0
174
     0
 93
        1
 44
0.0
173
     0
291
     0
 45
0.0
1001
ACAD
1000
AcDbSavedByObjectVersion
1070
     0
  0
VISUALSTYLE
  5
31
102
{ACAD_XDICTIONARY
360
9EA
102
}
102
{ACAD_REACTORS
330
2A
102
}
330
2A
100
AcDbVisualStyle
  2
3D Hidden
 70
     6
 71
     1
 72
     2
 73
     2
 90
        0
 40
-0.6
 41
-30.0
 62
     5
 63
     7
 74
     2
 91
        2
 64
     7
 65
   257
 75
     2
175
     1
 42
40.0
 92
        0
 66
   257
 43
1.0
 76
     1
 77
     6
 78
     2
 67
     7
 79
     3
170
     0
171
     0
290
     0
174
     0
 93
        1
 44
0.0
173
     0
291
     0
 45
0.0
1001
ACAD
1000
AcDbSavedByObjectVersion
1070
     0
  0
VISUALSTYLE
  5
30
102
{ACAD_XDICTIONARY
360
9E8
102
}
102
{ACAD_REACTORS
330
2A
102
}
330
2A
100
AcDbVisualStyle
  2
3dWireframe
 70
     5
 71
     0
 72
     2
 73
     0
 90
        0
 40
-0.6
 41
-30.0
 62
     5
 63
     7
 74
     1
 91
        4
 64
     7
 65
   257
 75
     1
175
     1
 42
1.0
 92
        0
 66
   257
 43
1.0
 76
     1
 77
     6
 78
     2
 67
     7
 79
     5
170
     0
171
     0
290
     0
174
     0
 93
        1
 44
0.0
173
     0
291
     0
 45
0.0
1001
ACAD
1000
AcDbSavedByObjectVersion
1070
     0
  0
VISUALSTYLE
  5
32
102
{ACAD_XDICTIONARY
360
9EC
102
}
102
{ACAD_REACTORS
330
2A
102
}
330
2A
100
AcDbVisualStyle
  2
Basic
 70
     7
 71
     1
 72
     0
 73
     1
 90
        0
 40
-0.6
 41
-30.0
 62
     5
 63
     7
 74
     0
 91
        4
 64
     7
 65
   257
 75
     1
175
     1
 42
1.0
 92
        8
 66
     7
 43
1.0
 76
     1
 77
     6
 78
     2
 67
     7
 79
     5
170
     0
171
     0
290
     0
174
     0
 93
        1
 44
0.0
173
     0
291
     1
 45
0.0
1001
ACAD
1000
AcDbSavedByObjectVersion
1070
     0
  0
VISUALSTYLE
  5
36
102
{ACAD_XDICTIONARY
360
9F4
102
}
102
{ACAD_REACTORS
330
2A
102
}
330
2A
100
AcDbVisualStyle
  2
Brighten
 70
    12
 71
     2
 72
     2
 73
     0
 90
        0
 40
-0.6
 41
-30.0
 62
     5
 63
     7
 74
     1
 91
        4
 64
     7
 65
   257
 75
     1
175
     1
 42
1.0
 92
        8
 66
     7
 43
1.0
 76
     1
 77
     6
 78
     2
 67
     7
 79
     5
170
     0
171
     0
290
     0
174
     0
 93
        1
 44
50.0
173
     0
291
     1
 45
0.0
1001
ACAD
1000
AcDbSavedByObjectVersion
1070
     0
  0
VISUALSTYLE
  5
3A
102
{ACAD_XDICTIONARY
360
9FC
102
}
102
{ACAD_REACTORS
330
2A
102
}
330
2A
100
AcDbVisualStyle
  2
ColorChange
 70
    16
 71
     2
 72
     2
 73
     3
 90
        0
 40
-0.6
 41
-30.0
 62
     5
 63
     8
 74
     1
 91
        4
 64
     7
 65
   257
 75
     1
175
     1
 42
1.0
 92
        8
 66
     8
 43
1.0
 76
     1
 77
     6
 78
     2
 67
     7
 79
     5
170
     0
171
     0
290
     0
174
     0
 93
        1
 44
0.0
173
     0
291
     1
 45
0.0
1001
ACAD
1000
AcDbSavedByObjectVersion
1070
     0
  0
VISUALSTYLE
  5
34
102
{ACAD_XDICTIONARY
360
9F0
102
}
102
{ACAD_REACTORS
330
2A
102
}
330
2A
100
AcDbVisualStyle
  2
Conceptual
 70
     9
 71
     3
 72
     2
 73
     0
 90
        0
 40
-0.6
 41
-30.0
 62
     5
 63
     7
 74
     2
 91
        2
 64
     7
 65
   257
 75
     1
175
     1
 42
40.0
 92
        8
 66
     7
 43
1.0
 76
     1
 77
     6
 78
     2
 67
     7
 79
     3
170
     0
171
     0
290
     0
174
     0
 93
        1
 44
0.0
173
     0
291
     0
 45
0.0
1001
ACAD
1000
AcDbSavedByObjectVersion
1070
     0
  0
VISUALSTYLE
  5
35
102
{ACAD_XDICTIONARY
360
9F2
102
}
102
{ACAD_REACTORS
330
2A
102
}
330
2A
100
AcDbVisualStyle
  2
Dim
 70
    11
 71
     2
 72
     2
 73
     0
 90
        0
 40
-0.6
 41
-30.0
 62
     5
 63
     7
 74
     1
 91
        4
 64
     7
 65
   257
 75
     1
175
     1
 42
1.0
 92
        8
 66
     7
 43
1.0
 76
     1
 77
     6
 78
     2
 67
     7
 79
     5
170
     0
171
     0
290
     0
174
     0
 93
        1
 44
-50.0
173
     0
291
     1
 45
0.0
1001
ACAD
1000
AcDbSavedByObjectVersion
1070
     0
  0
VISUALSTYLE
  5
45A
102
{ACAD_XDICTIONARY
360
A05
102
}
102
{ACAD_REACTORS
330
2A
102
}
330
2A
100
AcDbVisualStyle
  2
EdgeColorOff
 70
    22
 71
     2
 72
     2
 73
     0
 90
        0
 40
-0.6
 41
-30.0
 62
     5
 63
     7
 74
     1
 91
        4
 64
     7
 65
   257
 75
     1
175
     1
 42
1.0
 92
        8
 66
     7
 43
1.0
 76
     1
 77
     6
 78
     2
 67
     7
 79
     5
170
     0
171
     0
290
     0
174
     0
 93
        1
 44
0.0
173
     0
291
     1
 45
0.0
1001
ACAD
1000
AcDbSavedByObjectVersion
1070
     0
  0
VISUALSTYLE
  5
39
102
{ACAD_XDICTIONARY
360
9FA
102
}
102
{ACAD_REACTORS
330
2A
102
}
330
2A
100
AcDbVisualStyle
  2
Facepattern
 70
    15
 71
     2
 72
     2
 73
     0
 90
        0
 40
-0.6
 41
-30.0
 62
     5
 63
     7
 74
     1
 91
        4
 64
     7
 65
   257
 75
     1
175
     1
 42
1.0
 92
        8
 66
     7
 43
1.0
 76
     1
 77
     6
 78
     2
 67
     7
 79
     5
170
     0
171
     0
290
     0
174
     0
 93
        1
 44
0.0
173
     0
291
     1
 45
0.0
1001
ACAD
1000
AcDbSavedByObjectVersion
1070
     0
  0
VISUALSTYLE
  5
2B
102
{ACAD_XDICTIONARY
360
9DE
102
}
102
{ACAD_REACTORS
330
2A
102
}
330
2A
100
AcDbVisualStyle
  2
Flat
 70
     0
 71
     2
 72
     1
 73
     1
 90
        2
 40
-0.6
 41
30.0
 62
     5
 63
     7
 74
     0
 91
        4
 64
     7
 65
   257
 75
     1
175
     1
 42
1.0
 92
        8
 66
     7
 43
1.0
 76
     1
 77
     6
 78
     2
 67
     7
 79
     5
170
     0
171
     0
290
     0
174
     0
 93
       13
 44
0.0
173
     0
291
     1
 45
0.0
1001
ACAD
1000
AcDbSavedByObjectVersion
1070
     0
  0
VISUALSTYLE
  5
2C
102
{ACAD_XDICTIONARY
360
9E0
102
}
102
{ACAD_REACTORS
330
2A
102
}
330
2A
100
AcDbVisualStyle
  2
FlatWithEdges
 70
     1
 71
     2
 72
     1
 73
     1
 90
        2
 40
-0.6
 41
30.0
 62
     5
 63
     7
 74
     1
 91
        4
 64
     7
 65
   257
 75
     1
175
     1
 42
1.0
 92
        0
 66
   257
 43
1.0
 76
     1
 77
     6
 78
     2
 67
     7
 79
     5
170
     0
171
     0
290
     0
174
     0
 93
       13
 44
0.0
173
     0
291
     1
 45
0.0
1001
ACAD
1000
AcDbSavedByObjectVersion
1070
     0
  0
VISUALSTYLE
  5
2D
102
{ACAD_XDICTIONARY
360
9E2
102
}
102
{ACAD_REACTORS
330
2A
102
}
330
2A
100
AcDbVisualStyle
  2
Gouraud
 70
     2
 71
     2
 72
     2
 73
     1
 90
        2
 40
-0.6
 41
30.0
 62
     5
 63
     7
 74
     0
 91
        4
 64
     7
 65
   257
 75
     1
175
     1
 42
1.0
 92
        0
 66
     7
 43
1.0
 76
     1
 77
     6
 78
     2
 67
     7
 79
     5
170
     0
171
     0
290
     0
174
     0
 93
       13
 44
0.0
173
     0
291
     1
 45
0.0
1001
ACAD
1000
AcDbSavedByObjectVersion
1070
     0
  0
VISUALSTYLE
  5
2E
102
{ACAD_XDICTIONARY
360
9E4
102
}
102
{ACAD_REACTORS
330
2A
102
}
330
2A
100
AcDbVisualStyle
  2
GouraudWithEdges
 70
     3
 71
     2
 72
     2
 73
     1
 90
        2
 40
-0.6
 41
30.0
 62
     5
 63
     7
 74
     1
 91
        4
 64
     7
 65
   257
 75
     1
175
     1
 42
1.0
 92
        0
 66
   257
 43
1.0
 76
     1
 77
     6
 78
     2
 67
     7
 79
     5
170
     0
171
     0
290
     0
174
     0
 93
       13
 44
0.0
173
     0
291
     1
 45
0.0
1001
ACAD
1000
AcDbSavedByObjectVersion
1070
     0
  0
VISUALSTYLE
  5
458
102
{ACAD_XDICTIONARY
360
A01
102
}
102
{ACAD_REACTORS
330
2A
102
}
330
2A
100
AcDbVisualStyle
  2
JitterOff
 70
    20
 71
     2
 72
     2
 73
     0
 90
        0
 40
-0.6
 41
-30.0
 62
     5
 63
     7
 74
     1
 91
        4
 64
     7
 65
   257
 75
     1
175
     1
 42
1.0
 92
       10
 66
     7
 43
1.0
 76
     1
 77
     6
 78
     2
 67
     7
 79
     5
170
     0
171
     0
290
     0
174
     0
 93
        1
 44
0.0
173
     0
291
     1
 45
0.0
1001
ACAD
1000
AcDbSavedByObjectVersion
1070
     0
  0
VISUALSTYLE
  5
38
102
{ACAD_XDICTIONARY
360
9F8
102
}
102
{ACAD_REACTORS
330
2A
102
}
330
2A
100
AcDbVisualStyle
  2
Linepattern
 70
    14
 71
     2
 72
     2
 73
     0
 90
        0
 40
-0.6
 41
-30.0
 62
     5
 63
     7
 74
     1
 91
        4
 64
     7
 65
   257
 75
     7
175
     7
 42
1.0
 92
        8
 66
     7
 43
1.0
 76
     1
 77
     6
 78
     2
 67
     7
 79
     5
170
     0
171
     0
290
     0
174
     0
 93
        1
 44
0.0
173
     0
291
     1
 45
0.0
1001
ACAD
1000
AcDbSavedByObjectVersion
1070
     0
  0
VISUALSTYLE
  5
459
102
{ACAD_XDICTIONARY
360
A03
102
}
102
{ACAD_REACTORS
330
2A
102
}
330
2A
100
AcDbVisualStyle
  2
OverhangOff
 70
    21
 71
     2
 72
     2
 73
     0
 90
        0
 40
-0.6
 41
-30.0
 62
     5
 63
     7
 74
     1
 91
        4
 64
     7
 65
   257
 75
     1
175
     1
 42
1.0
 92
        9
 66
     7
 43
1.0
 76
     1
 77
     6
 78
     2
 67
     7
 79
     5
170
     0
171
     0
290
     0
174
     0
 93
        1
 44
0.0
173
     0
291
     1
 45
0.0
1001
ACAD
1000
AcDbSavedByObjectVersion
1070
     0
  0
VISUALSTYLE
  5
33
102
{ACAD_XDICTIONARY
360
9EE
102
}
102
{ACAD_REACTORS
330
2A
102
}
330
2A
100
AcDbVisualStyle
  2
Realistic
 70
     8
 71
     2
 72
     2
 73
     0
 90
        0
 40
-0.6
 41
-30.0
 62
     5
 63
     7
 74
     1
 91
        0
 64
     7
 65
   257
 75
     1
175
     1
 42
1.0
 92
        8
 66
     8
 43
1.0
 76
     1
 77
     6
 78
     2
 67
     7
 79
     5
170
     0
171
     0
290
     0
174
     0
 93
       13
 44
0.0
173
     0
291
     0
 45
0.0
1001
ACAD
1000
AcDbSavedByObjectVersion
1070
     0
  0
VISUALSTYLE
  5
37
102
{ACAD_XDICTIONARY
360
9F6
102
}
102
{ACAD_REACTORS
330
2A
102
}
330
2A
100
AcDbVisualStyle
  2
Thicken
 70
    13
 71
     2
 72
     2
 73
     0
 90
        0
 40
-0.6
 41
-30.0
 62
     5
 63
     7
 74
     1
 91
        4
 64
     7
 65
   257
 75
     1
175
     1
 42
1.0
 92
       12
 66
     7
 43
1.0
 76
     1
 77
     6
 78
     2
 67
     7
 79
     5
170
     0
171
     0
290
     0
174
     0
 93
        1
 44
0.0
173
     0
291
     1
 45
0.0
1001
ACAD
1000
AcDbSavedByObjectVersion
1070
     0
  0
DICTIONARYVAR
  5
43B
102
{ACAD_REACTORS
330
43A
102
}
330
43A
100
DictionaryVariables
280
     0
  1
1:1
  0
DICTIONARYVAR
  5
98A
102
{ACAD_REACTORS
330
43A
102
}
330
43A
100
DictionaryVariables
280
     0
  1
STANDARD
  0
DICTIONARYVAR
  5
989
102
{ACAD_REACTORS
330
43A
102
}
330
43A
100
DictionaryVariables
280
     0
  1
STANDARD
  0
DICTIONARYVAR
  5
9D0
102
{ACAD_REACTORS
330
43A
102
}
330
43A
100
DictionaryVariables
280
     0
  1
2
  0
DICTIONARYVAR
  5
9CF
102
{ACAD_REACTORS
330
43A
102
}
330
43A
100
DictionaryVariables
280
     0
  1
2
  0
DICTIONARYVAR
  5
9CD
102
{ACAD_REACTORS
330
43A
102
}
330
43A
100
DictionaryVariables
280
     0
  1
1
  0
DICTIONARYVAR
  5
9CC
102
{ACAD_REACTORS
330
43A
102
}
330
43A
100
DictionaryVariables
280
     0
  1
0
  0
DICTIONARYVAR
  5
98B
102
{ACAD_REACTORS
330
43A
102
}
330
43A
100
DictionaryVariables
280
     0
  1
1
  0
DICTIONARYVAR
  5
98C
102
{ACAD_REACTORS
330
43A
102
}
330
43A
100
DictionaryVariables
280
     0
  1
15
  0
DICTIONARYVAR
  5
9CA
102
{ACAD_REACTORS
330
43A
102
}
330
43A
100
DictionaryVariables
280
     0
  1
2
  0
DICTIONARYVAR
  5
9C9
102
{ACAD_REACTORS
330
43A
102
}
330
43A
100
DictionaryVariables
280
     0
  1
1
  0
DICTIONARYVAR
  5
9D2
102
{ACAD_REACTORS
330
43A
102
}
330
43A
100
DictionaryVariables
280
     0
  1
80.000000
  0
DICTIONARYVAR
  5
9D1
102
{ACAD_REACTORS
330
43A
102
}
330
43A
100
DictionaryVariables
280
     0
  1
5.000000
  0
DICTIONARYVAR
  5
9CB
102
{ACAD_REACTORS
330
43A
102
}
330
43A
100
DictionaryVariables
280
     0
  1
127
  0
DICTIONARYVAR
  5
9CE
102
{ACAD_REACTORS
330
43A
102
}
330
43A
100
DictionaryVariables
280
     0
  1
0
  0
DICTIONARY
  5
9D9
330
1E
100
AcDbDictionary
280
     1
281
     1
  3
ACAD_XREC_ROUNDTRIP
360
9DA
  0
DICTIONARY
  5
9DC
330
26
100
AcDbDictionary
280
     1
281
     1
  3
ACAD_XREC_ROUNDTRIP
360
9DD
  0
DICTIONARY
  5
987
330
22
100
AcDbDictionary
280
     1
281
     1
  3
ACAD_XREC_ROUNDTRIP
360
9DB
  3
ADSK_XREC_LAYOUTTHUMBNAIL
360
988
  0
DICTIONARY
  5
449
330
448
100
AcDbDictionary
280
     1
281
     1
  3
ACAD_XREC_ROUNDTRIP
360
9FF
  3
BUMPTILE
360
44B
  3
DIFFUSETILE
360
44A
  3
OPACITYTILE
360
44E
  3
REFLECTIONTILE
360
44D
  3
REFRACTIONTILE
360
44F
  3
SPECULARTILE
360
44C
  0
DICTIONARY
  5
441
330
440
100
AcDbDictionary
280
     1
281
     1
  3
ACAD_XREC_ROUNDTRIP
360
9FE
  3
BUMPTILE
360
443
  3
DIFFUSETILE
360
442
  3
OPACITYTILE
360
446
  3
REFLECTIONTILE
360
445
  3
REFRACTIONTILE
360
447
  3
SPECULARTILE
360
444
  0
DICTIONARY
  5
451
330
450
100
AcDbDictionary
280
     1
281
     1
  3
ACAD_XREC_ROUNDTRIP
360
A00
  3
BUMPTILE
360
453
  3
DIFFUSETILE
360
452
  3
OPACITYTILE
360
456
  3
REFLECTIONTILE
360
455
  3
REFRACTIONTILE
360
457
  3
SPECULARTILE
360
454
  0
DICTIONARY
  5
9D3
330
45C
100
AcDbDictionary
280
     1
281
     1
  3
ACAD_ROUNDTRIP_2008_TABLESTYLE_CELLSTYLEMAP
360
9D4
  3
ACAD_XREC_ROUNDTRIP
360
A07
  0
DICTIONARY
  5
9E6
330
2F
100
AcDbDictionary
280
     1
281
     1
  3
ACAD_XREC_ROUNDTRIP
360
9E7
  0
DICTIONARY
  5
9EA
330
31
100
AcDbDictionary
280
     1
281
     1
  3
ACAD_XREC_ROUNDTRIP
360
9EB
  0
DICTIONARY
  5
9E8
330
30
100
AcDbDictionary
280
     1
281
     1
  3
ACAD_XREC_ROUNDTRIP
360
9E9
  0
DICTIONARY
  5
9EC
330
32
100
AcDbDictionary
280
     1
281
     1
  3
ACAD_XREC_ROUNDTRIP
360
9ED
  0
DICTIONARY
  5
9F4
330
36
100
AcDbDictionary
280
     1
281
     1
  3
ACAD_XREC_ROUNDTRIP
360
9F5
  0
DICTIONARY
  5
9FC
330
3A
100
AcDbDictionary
280
     1
281
     1
  3
ACAD_XREC_ROUNDTRIP
360
9FD
  0
DICTIONARY
  5
9F0
330
34
100
AcDbDictionary
280
     1
281
     1
  3
ACAD_XREC_ROUNDTRIP
360
9F1
  0
DICTIONARY
  5
9F2
330
35
100
AcDbDictionary
280
     1
281
     1
  3
ACAD_XREC_ROUNDTRIP
360
9F3
  0
DICTIONARY
  5
A05
330
45A
100
AcDbDictionary
280
     1
281
     1
  3
ACAD_XREC_ROUNDTRIP
360
A06
  0
DICTIONARY
  5
9FA
330
39
100
AcDbDictionary
280
     1
281
     1
  3
ACAD_XREC_ROUNDTRIP
360
9FB
  0
DICTIONARY
  5
9DE
330
2B
100
AcDbDictionary
280
     1
281
     1
  3
ACAD_XREC_ROUNDTRIP
360
9DF
  0
DICTIONARY
  5
9E0
330
2C
100
AcDbDictionary
280
     1
281
     1
  3
ACAD_XREC_ROUNDTRIP
360
9E1
  0
DICTIONARY
  5
9E2
330
2D
100
AcDbDictionary
280
     1
281
     1
  3
ACAD_XREC_ROUNDTRIP
360
9E3
  0
DICTIONARY
  5
9E4
330
2E
100
AcDbDictionary
280
     1
281
     1
  3
ACAD_XREC_ROUNDTRIP
360
9E5
  0
DICTIONARY
  5
A01
330
458
100
AcDbDictionary
280
     1
281
     1
  3
ACAD_XREC_ROUNDTRIP
360
A02
  0
DICTIONARY
  5
9F8
330
38
100
AcDbDictionary
280
     1
281
     1
  3
ACAD_XREC_ROUNDTRIP
360
9F9
  0
DICTIONARY
  5
A03
330
459
100
AcDbDictionary
280
     1
281
     1
  3
ACAD_XREC_ROUNDTRIP
360
A04
  0
DICTIONARY
  5
9EE
330
33
100
AcDbDictionary
280
     1
281
     1
  3
ACAD_XREC_ROUNDTRIP
360
9EF
  0
DICTIONARY
  5
9F6
330
37
100
AcDbDictionary
280
     1
281
     1
  3
ACAD_XREC_ROUNDTRIP
360
9F7
  0
XRECORD
  5
9DA
102
{ACAD_REACTORS
330
9D9
102
}
330
9D9
100
AcDbXrecord
280
     1
102
SHADEPLOT
 70
     0
102
SHADEPLOTRESLEVEL
 70
     2
102
SHADEPLOTCUSTOMDPI
 70
   300
  0
XRECORD
  5
9DD
102
{ACAD_REACTORS
330
9DC
102
}
330
9DC
100
AcDbXrecord
280
     1
102
SHADEPLOT
 70
     0
102
SHADEPLOTRESLEVEL
 70
     2
102
SHADEPLOTCUSTOMDPI
 70
   300
  0
XRECORD
  5
9DB
102
{ACAD_REACTORS
330
987
102
}
330
987
100
AcDbXrecord
280
     1
102
SHADEPLOT
 70
     1
102
SHADEPLOTRESLEVEL
 70
     2
102
SHADEPLOTCUSTOMDPI
 70
   300
  0
XRECORD
  5
988
102
{ACAD_REACTORS
330
987
102
}
330
987
100
AcDbXrecord
280
     1
310
28000000000100008D0000000100080000000000008D00000000000000000000000100000000000000000000FFFFFF00000000000000000000000000000000000000000000000000000000000000000000000000330000006600000099000000CC000000FF00000000330000333300006633000099330000CC330000FF3300
310
0000660000336600006666000099660000CC660000FF66000000990000339900006699000099990000CC990000FF99000000CC000033CC000066CC000099CC0000CCCC0000FFCC000000FF000033FF000066FF000099FF0000CCFF0000FFFF000000003300330033006600330099003300CC003300FF003300003333003333
310
33006633330099333300CC333300FF33330000663300336633006666330099663300CC663300FF66330000993300339933006699330099993300CC993300FF99330000CC330033CC330066CC330099CC3300CCCC3300FFCC330000FF330033FF330066FF330099FF3300CCFF3300FFFF330000006600330066006600660099
310
006600CC006600FF00660000336600333366006633660099336600CC336600FF33660000666600336666006666660099666600CC666600FF66660000996600339966006699660099996600CC996600FF99660000CC660033CC660066CC660099CC6600CCCC6600FFCC660000FF660033FF660066FF660099FF6600CCFF6600
310
FFFF660000009900330099006600990099009900CC009900FF00990000339900333399006633990099339900CC339900FF33990000669900336699006666990099669900CC669900FF66990000999900339999006699990099999900CC999900FF99990000CC990033CC990066CC990099CC9900CCCC9900FFCC990000FF99
310
0033FF990066FF990099FF9900CCFF9900FFFF99000000CC003300CC006600CC009900CC00CC00CC00FF00CC000033CC003333CC006633CC009933CC00CC33CC00FF33CC000066CC003366CC006666CC009966CC00CC66CC00FF66CC000099CC003399CC006699CC009999CC00CC99CC00FF99CC0000CCCC0033CCCC0066CC
310
CC0099CCCC00CCCCCC00FFCCCC0000FFCC0033FFCC0066FFCC0099FFCC00CCFFCC00FFFFCC000000FF003300FF006600FF009900FF00CC00FF00FF00FF000033FF003333FF006633FF009933FF00CC33FF00FF33FF000066FF003366FF006666FF009966FF00CC66FF00FF66FF000099FF003399FF006699FF009999FF00CC
310
99FF00FF99FF0000CCFF0033CCFF0066CCFF0099CCFF00CCCCFF00FFCCFF0000FFFF0033FFFF0066FFFF0099FFFF00CCFFFF00FFFFFF00000000000D0D0D001A1A1A00282828003535350043434300505050005D5D5D006B6B6B00787878008686860093939300A1A1A100AEAEAE00BBBBBB00C9C9C900D6D6D600E4E4E400
310
F1F1F100FFFFFF0000000000000000000000000000000000000000000000000000000000000000000000000000000000E2E2E2E2E2E2E2E2E2E2E2E2E2E2E2E2E2E2E2E2E2E2E2E2E2E2E2E2E2E2E2E2E2E2E2E2E2E2E2E2E2E2E2E2E2E2E2E2E2E2E2E2E2E2E2E2E2E2E2E2E2E2E2E2E2E2E2E2E2E2E2E2E2E2E2E2E2E2E2
310
E2E2E2E2E2E2E2E2E2E2E2E2E2E2E2E2E2E2E2E2E2E2E2E2E2E2E2E2E2E2E2E2E2E2E2E2E2E2E2E2E2E2E2E2E2E2E2E2E2E2E2E2E2E2E2E2E2E2E2E2E2E2E2E2E2E2E2E2E2E2E2E2E2E2E2E2E2E2E2E2E2E2E2E2E2E2E2E2E2E2E2E2E2E2E2E2E2E2E2E2E2E2E2E2E2E2E2E2E2E2E2E2E2E2E2E2E2E2E2E2E2E2E2E2E2E2E2
310
E2E2E2E2E2E2E2E2E2E2E2E2E2E2E2E2E2E2E2E2E2E2E2E2E2E2E2E2E2E2E2E2E2E2E2E2E2E2E2E2E2E2E2E2E2E2E2E2E2E2E2E2E2E2E2E2E2E2E2E2E2E2E2E2E2E2E2E2E2E2E2E2E2E2E2E2E2E2E2E2E2E2E2E2E2E2F5F5F5F5F5F5F5F5F5F5F5F5F5F5F5F5F5F5F5F5F5F5F5F5F5F5F5F5F5F5F5F5F5F5F5F5F5F5F5F5F5
310
F5F5F5F5F5F5F5F5F5F5F5F5F5F5F5F5F5F5F5F5F5F5F5F5F5F5F5F5F5F5F5F5F5F5F5F5F5F5F5F5F5F5F5F5F5F5F5F5F5F5F5F5F5F5F5F5F5F5F5F5F5F5F5F5F5F5F5F5F5F5F5F5F5F5F5F5F5F5F5F5F5F5F5F5F5F5F5F5F5F5F5F5F5F5F5F5F5F5F5F5F5F5F5F5F5F5F5F5F5F5F5F5F5F5F5F5F5F5F5F5F5F5F5F5F5F5F5
310
F5F5F5F5F5F5F5F5F5F5F5F5F5F5F5F5E2E2E2E2E2E2E2E2E2E2E2E2E2E2E2E2E2E2E2E2E2E2E2E2E2E2E2E2E2E2E2E2E2E2E2E2E2E2E2E2E2E2E2E2E2E2E2E2E2E2E2E2E2E2E2E2E2E2E2E2E2E2E2E2E2E2E2E2E2E2E2E2F5E2E2E2E2E2E2E2E2E2E2E2E2E2E2E2E2E2E2E2E2E2E2E2E2E2E2E2E2E2E2E2E2E2E2E2E2E2E2
310
E2E2E2E2E2E2E2E2E2E2E2E2E2E2E2E2E2E2E2E2E2E2E2E2E2E2E2E2E2E2E2E2E2E2E2E2E2E2E2E2E2E2E2E2E2E2E2E2E2E2E2E2E2E2E2E2E2E2E2E2E2E2E2E2E2E2E2E2E2E2E2E2E2E2E2E2E2E2E2E2E2E2E2E2E2E2E2E2E2E2E2E2E2E2E2E2E2E2E2F5E2E2E2E2F5F5F5F5F5F5F5F5F5F5F5F5F5F5E2E2E2E2E2E2E2E2E2
310
E2F5E2E2F5F5F5E2F5E2E2F5E2F5E2E2E2F5E2E2E2E2E2E2E2E2E2E2E2E2E2E2E2E2E2E2E2E2E2E2E2E2E2E2E2E2E2E2E2E2E2E2E2E2E2E2E2E2E2E2E2E2E2E2E2E2E2E2E2E2E2E2E2E2E2E2E2E2E2E2E2E2E2E2E2E2E2E2E2E2F5E2E2E2E2E2E2E2E2E2E2E2E22D2D2D2D2D2D2D2D2D2DE22D2D2D2D2DE22D2D2D2D2D2D2D
310
2D2D2D2D2D2D2D2D2D2D2D2D2D2D2D2D2D2DE22D2D2D2D2D2D2D2D2DE22D2D2D2DE2E2E2E2E2E2E2E2E2E2E2E2E2E2E2E2E2E2E2E2E2E2E2E2E2E2E2E2E2E2E2E2E2E2E2E2E2E2E2E2E2E2E2E2E2E2E2E2E2E2E2E2E2E2E2E2E2E2E2E2E2E2E2E2E2E2E2E2F5E2E2E2E2F5F5F5F5F5F5F5F5F5F5F5F5F5F5E2E2E2E2E2E2E2
310
E2E2E2F5E2E2F5F5F5E2F5E2E2F5F5F5E2E2E2F5E2E2E2E2E2E2E2E2E2E2E2E2E2E2E2E2E2E2E2E2E2E2E2E2E2E2E2E2E2E2E2E2E2E2E2E2E2E2E2E2E2E2E2E2E2E2E2E2E2E2E2E2E2E2E2E2E2E2E2E2E2E2E2E2E2E2E2E2E2E2E2E2F5E2E2E2E2E2E2E2E2E2E2E2E22D2D2D2D2D2D2D2D2D2DE22D2D2D2D2DE22D2D2D2D2D
310
2D2D2D2D2D2D2D2D2D2D2D2D2D2D2D2D2D2D2D2DE22D2D2D2D2D2D2D2D2D2D2D2D2D2DE2E2E2E2E2E2E2E2E2E2E2E2E2E2E2E2E2E2E2E2E2E2E2E2E2E2E2E2E2E2E2E2E2E2E2E2E2E2E2E2E2E2E2E2E2E2E2E2E2E2E2E2E2E2E2E2E2E2E2E2E2E2E2E2E2E2E2E2F5F5F5F5F5F5F5F5F5F5F5F5F5F5F5F5F5F5F5F5F5F5F5F5
310
F5F5F5F5F5F5F5F5F5F5F5F5F5F5F5F5F5F5F5F5F5F5E2E2E2E2E2E2E2E2E2E2E2E2E2E2E2E2E2E2E2E2E2E2E2E2E2E2E2E2E2E2E2E2E2E2E2E2E2E2E2E2E2E2E2E2E2E2E2E2E2E2E2E2E2E2E2E2E2E2E2E2E2E2E2E2E2E2E2E2E2E2E2E2F5E2E2E2E2E2E2E2E2E2E2E2E22DE22D2D2D2D2D2D2D2D2D2D2D2D2D2D2D2D2D2D
310
2D2D2D2D2D2D2D2D2D2D2D2D2D2D2D2D2D2D2D2D2D2D2D2D2D2D2D2D2D2D2D2D2D2D2D2D2D2D2D2D2D2D2D2D2D2D2D2DE2E2E2E2E2E2E2E2E2E2E2E2E2E2E2E2E2E2E2E2E2E2E2E2E2E2E2E2E2E2E2E2E2E2E2E2E2E2E2E2E2E2E2E2E2E2E2E2E2E2E2E2E2E2E2E2E2F5E2E2E2E2E2E2E2E2E2E2F5E2E2E2E2E2F5E2E2E2E2
310
E2E2E2E2E2E2E2E2E2E2E2E2E2E2E2F5E2E2E2E2E2E2E2F5E2E2E2E2E2E2E2E2E2E2E2E2E2E2E2E2E2E2E2E2E2E2E2E2E2E2E2E2E2E2E2E2E2E2E2E2E2E2E2E2E2E2E2E2E2E2E2E2E2E2E2E2E2E2E2E2E2E2E2E2E2E2E2E2E2E2E2E2E2E2E2E2F5E2E2E2E2E2E2E2E2E2E2E2E2E2E2E22D2D2D2D2D2D2D2D2D2D2D2D2D2D2D
310
2D2D2D2D2D2D2D2D2D2DE22D2D2D2D2D2D2D2DE22D2D2D2D2D2D2DE22D2D2D2D2D2D2D2DE22D2D2D2D2D2D2D2D2D2D2D2D2DE2E2E2E2E2E2E2E2E2E2E2E2E2E2E2E2E2E2E2E2E2E2E2E2E2E2E2E2E2E2E2E2E2E2E2E2E2E2E2E2E2E2E2E2E2E2E2E2E2E2E2E2E2E2E2E2E2F5E2E2E2E2E2E2F5F5F5E2F5E2E2F5E2E2F5E2E2
310
E2E2E2E2F5F5F5F5F5F5E2E2E2E2E2E2E2F5E2E2E2F5E2E2E2F5E2E2E2E2E2E2E2E2E2E2E2E2E2E2E2E2E2E2E2E2E2E2E2E2E2E2E2E2E2E2E2E2E2E2E2E2E2E2E2E2E2E2E2E2E2E2E2E2E2E2E2E2E2E2E2E2E2E2E2E2E2E2E2E2E2E2E2E2E2E2E2E2F5E2E2E2E2E2E2E2E2E2E2E2E22D2D2D2D2D2D2D2D2D2D2D2D2D2D2D2D
310
2D2D2D2D2D2D2D2D2D2D2D2D2D2D2D2D2D2D2D2D2D2D2D2D2D2D2D2D2D2D2D2D2D2D2D2D2D2D2D2D2D2D2D2D2D2D2D2D2D2D2D2DE2E2E2E2E2E2E2E2E2E2E2E2E2E2E2E2E2E2E2E2E2E2E2E2E2E2E2E2E2E2E2E2E2E2E2E2E2E2E2E2E2E2E2E2E2E2E2E2E2E2E2E2E2E2E2E2E2F5E2E2E2E2E2E2F5F5F5E2F5E2E2F5E2E2F5
310
E2E2E2E2E2E2F5F5F5F5F5F5E2E2E2E2E2E2E2F5E2E2E2F5E2E2E2F5E2E2E2E2E2E2E2E2E2E2E2E2E2E2E2E2E2E2E2E2E2E2E2E2E2E2E2E2E2E2E2E2E2E2E2E2E2E2E2E2E2E2E2E2E2E2E2E2E2E2E2E2E2E2E2E2E2E2E2E2E2E2E2E2E2E2E2E2E2E2E2E2F5E2E2E2E2E2E2E2E2E2E2E2E22D2D2D2D2D2D2D2D2D2D2DE22D2D
310
2D2DE22D2D2D2D2D2DE22D2D2D2D2DE22D2D2D2D2D2DE22D2D2D2D2D2D2DE22D2D2D2D2D2D2D2D2D2D2D2D2D2D2D2D2D2D2D2D2D2D2D2DE2E2E2E2E2E2E2E2E2E2E2E2E2E2E2E2E2E2E2E2E2E2E2E2E2E2E2E2E2E2E2E2E2E2E2E2E2E2E2E2E2E2E2E2E2E2E2E2E2E2E2E2E2E2E2E2F5F5F5F5E2E2E2F5F5F5E2F5E2F5F5F5
310
E2F5E2E2E2F5F5F5F5F5F5F5F5E2E2E2E2E2E2E2E2F5F5F5E2E2E2E2E2F5E2E2E2E2E2E2E2E2E2E2E2E2E2E2E2E2E2E2E2E2E2E2E2E2E2E2E2E2E2E2E2E2E2E2E2E2E2E2E2E2E2E2E2E2E2E2E2E2E2E2E2E2E2E2E2E2E2E2E2E2E2E2E2E2E2E2E2E2E2E2E2E2F5E2E2E2E2E2E2E2E2E2E2E2E22D2D2D2D2D2D2D2D2D2D2D2D
310
2D2D2D2D2D2D2D2D2D2D2DE22D2D2D2D2D2D2D2D2D2D2D2D2D2D2D2D2D2D2D2D2D2D2D2D2D2D2D2D2D2D2D2D2D2D2D2D2D2D2D2D2D2D2D2D2DE2E2E2E2E2E2E2E2E2E2E2E2E2E2E2E2E2E2E2E2E2E2E2E2E2E2E2E2E2E2E2E2E2E2E2E2E2E2E2E2E2E2E2E2E2E2E2E2E2E2E2E2E2E2E2E2F5F5F5F5E2E2E2E2E2E2E2F5E2F5
310
F5F5E2F5E2E2E2F5F5F5F5F5F5F5F5E2E2E2E2E2E2E2E2F5F5F5E2E2E2E2E2F5E2E2E2E2E2E2E2E2E2E2E2E2E2E2E2E2E2E2E2E2E2E2E2E2E2E2E2E2E2E2E2E2E2E2E2E2E2E2E2E2E2E2E2E2E2E2E2E2E2E2E2E2E2E2E2E2E2E2E2E2E2E2E2E2E2E2E2E2E2E2E2E2F5E2E2E2E2E2E2E2E2E2E2E2E22D2D2D2D2D2D2D2D2D2D
310
E22D2D2D2D2D2D2D2D2D2D2D2DE22D2D2D2D2D2D2D2D2D2D2D2D2D2D2D2D2D2D2D2D2D2D2D2D2D2D2D2DE22D2D2D2DE22D2D2D2D2DE2E2E2E2E2E2E2E2E2E2E2E2E2E2E2E2E2E2E2E2E2E2E2E2E2E2E2E2E2E2E2E2E2E2E2E2E2E2E2E2E2E2E2E2E2E2E2E2E2E2E2E2E2E2E2E2E2E2E2E2E2E2F5F5F5F5F5F5F5F5F5F5F5F5
310
F5F5F5F5F5F5F5F5F5F5F5F5F5F5F5F5F5F5F5F5F5F5F5F5F5F5F5F5F5F5F5F5F5F5E2E2E2E2E2E2E2E2E2E2E2E2E2E2E2E2E2E2E2E2E2E2E2E2E2E2E2E2E2E2E2E2E2E2E2E2E2E2E2E2E2E2E2E2E2E2E2E2E2E2E2E2E2E2E2E2E2E2E2E2E2E2E2E2E2E2E2E2E2E2E2E2F5E2E2E22D2D2D2D2D2D2D2D2D2D2D2D2D2D2D2D2D
310
2D2D2D2D2D2D2D2D2D2D2D2D2D2D2D2D2D2D2D2D2D2D2D2D2D2D2D2D2D2D2D2D2D2D2D2D2D2D2D2D2D2D2D2DE22D2D2D2DE22D2D2D2DE2E2E2E2E2E2E2E2E2E2E2E2E2E2E2E2E2E2E2E2E2E2E2E2E2E2E2E2E2E2E2E2E2E2E2E2E2E2E2E2E2E2E2E2E2E2E2E2E2E2E2E2E2E2E2E2E2E2E2E2E2E2E2F5E2E2E2E2E2E2F5F5F5
310
F5F5F5E2F5F5F5F5F5F5F5E2F5F5F5F5F5F5F5F5E2E2E2E2E2E2E2E2E2E2E2E2E2E2E2F5E2E2E2E2E2E2E2E2E2E2E2E2E2E2E2E2E2E2E2E2E2E2E2E2E2E2E2E2E2E2E2E2E2E2E2E2E2E2E2E2E2E2E2E2E2E2E2E2E2E2E2E2E2E2E2E2E2E2E2E2E2E2E2E2E2E2E2E2E2E2E2E2F5E2E2E22D2D2D2D2D2D2D2DE22D2D2D2D2D2D
310
2D2D2DE22D2D2D2D2D2D2D2D2DE22D2D2D2D2D2DE22D2D2D2D2D2D2D2D2D2D2D2D2DE22D2D2D2D2D2D2D2D2D2D2DE2E2E2E2E2E2E2E2E2E2E2E2E2E2E2E2E2E2E2E2E2E2E2E2E2E2E2E2E2E2E2E2E2E2E2E2E2E2E2E2E2E2E2E2E2E2E2E2E2E2E2E2E2E2E2E2E2E2E2E2E2E2E2E2E2E2E2E2E2E2E2E2E2F5E2E2E2E2E2E2F5
310
F5F5F5F5F5E2F5F5F5F5F5F5F5E2F5F5F5F5F5F5F5F5E2E2E2E2E2E2E2E2E2E2E2E2E2E2E2F5E2E2E2E2E2E2E2E2E2E2E2E2E2E2E2E2E2E2E2E2E2E2E2E2E2E2E2E2E2E2E2E2E2E2E2E2E2E2E2E2E2E2E2E2E2E2E2E2E2E2E2E2E2E2E2E2E2E2E2E2E2E2E2E2E2E2E2E2E2E2E2E2F5E2E2E22D2DE22D2D2D2D2D2D2D2D2D2D
310
2D2D2D2D2D2D2D2D2D2D2D2D2D2D2D2D2D2D2D2D2D2D2D2D2D2D2D2D2D2D2D2D2D2D2D2D2D2D2D2D2D2D2D2D2D2D2D2D2DE22D2D2D2D2D2D2D2D2D2D2DE2E2E2E2E2E2E2E2E2E2E2E2E2E2E2E2E2E2E2E2E2E2E2E2E2E2E2E2E2E2E2E2E2E2E2E2E2E2E2E2E2E2E2E2E2E2E2E2E2E2E2E2E2E2E2E2E2E2E2E2F5E2E2E2E2E2
310
E2F5F5F5F5F5F5E2F5F5F5F5F5F5F5E2F5F5F5F5F5F5F5F5E2E2E2E2E2E2E2E2E2E2E2E2E2E2E2F5E2E2E2E2E2E2E2E2E2E2E2E2E2E2E2E2E2E2E2E2E2E2E2E2E2E2E2E2E2E2E2E2E2E2E2E2E2E2E2E2E2E2E2E2E2E2E2E2E2E2E2E2E2E2E2E2E2E2E2E2E2E2E2E2E2E2E2E2E2E2E2E2F5E2E2E2E2E2E2E22D2DE22D2D2DE2
310
2D2D2D2D2D2DE22D2D2D2D2D2DE22D2D2D2D2D2D2D2D2D2D2D2D2D2DE22D2D2DE22D2D2D2D2D2D2D2D2D2DE22D2D2D2D2D2D2DE22D2D2D2D2D2D2D2D2D2DE2E2E2E2E2E2E2E2E2E2E2E2E2E2E2E2E2E2E2E2E2E2E2E2E2E2E2E2E2E2E2E2E2E2E2E2E2E2E2E2E2E2E2E2E2E2E2E2E2E2E2E2E2E2E2E2E2E2E2E2E2F5F5F5F5
310
E2E2E2E2F5F5F5E2F5F5F5F5F5F5F5F5F5E2F5F5F5F5F5F5F5F5E2E2E2E2E2E2E2E2E2E2E2E2E2E2E2F5E2E2E2E2E2E2E2E2E2E2E2E2E2E2E2E2E2E2E2E2E2E2E2E2E2E2E2E2E2E2E2E2E2E2E2E2E2E2E2E2E2E2E2E2E2E2E2E2E2E2E2E2E2E2E2E2E2E2E2E2E2E2E2E2E2E2E2E2E2E2E2E2F5E2E2E2E2E2E2E22D2D2D2D2D
310
2D2D2D2D2D2D2D2D2D2D2D2D2D2D2D2D2D2D2D2D2D2D2D2D2D2D2D2D2D2D2D2D2D2D2D2D2DE22D2D2D2D2D2D2D2D2D2D2D2D2D2D2D2D2D2DE22D2D2D2D2D2D2DE2E2E2E2E2E2E2E2E2E2E2E2E2E2E2E2E2E2E2E2E2E2E2E2E2E2E2E2E2E2E2E2E2E2E2E2E2E2E2E2E2E2E2E2E2E2E2E2E2E2E2E2E2E2E2E2E2E2E2E2E2F5F5
310
F5F5E2E2E2E2F5F5F5F5F5F5F5F5F5F5F5F5F5E2F5F5F5F5F5F5F5F5E2E2E2E2E2E2E2E2E2E2E2E2E2E2E2F5E2E2E2E2E2E2E2E2E2E2E2E2E2E2E2E2E2E2E2E2E2E2E2E2E2E2E2E2E2E2E2E2E2E2E2E2E2E2E2E2E2E2E2E2E2E2E2E2E2E2E2E2E2E2E2E2E2E2E2E2E2E2E2E2E2E2E2E2E2E2E2E2F5E2E2E2E2E2E2E22D2D2D
310
2D2D2D2DE22D2D2D2D2D2DE22D2D2D2D2D2D2D2D2D2D2D2D2D2D2D2D2D2D2D2D2D2D2D2D2D2D2DE22D2D2D2D2DE2E2E2E2E2E2E2E2E2E2E2E2E2E2E2E2E2E2E2E2E2E2E2E2E2E2E2E2E2E2E2E2E2E2E2E2E2E2E2E2E2E2E2E2E2E2E2E2E2E2E2E2E2E2E2E2E2E2E2E2E2E2E2E2E2E2E2E2E2E2E2E2E2E2E2E2E2E2E2E2E2E2
310
F5F5F5F5F5F5F5F5F5F5F5F5F5F5F5F5F5F5F5F5F5F5F5F5F5F5F5F5F5F5F5F5F5F5F5F5F5F5F5F5F5F5F5F5F5F5E2E2E2E2E2E2E2E2E2E2E2E2E2E2E2E2E2E2E2E2E2E2E2E2E2E2E2E2E2E2E2E2E2E2E2E2E2E2E2E2E2E2E2E2E2E2E2E2E2E2E2E2E2E2E2E2E2E2E2E2E2E2E2E2E2E2E2E2E2E2E2E2F5E2E2E2E2E2E2E22D
310
2D2D2D2D2D2D2D2D2D2D2D2D2D2D2D2D2D2D2D2D2D2D2D2D2D2D2D2D2D2D2D2D2D2DE22D2D2D2D2D2D2D2D2D2D2D2D2D2D2D2D2D2D2D2D2D2D2D2D2D2D2D2D2DE2E2E2E2E2E2E2E2E2E2E2E2E2E2E2E2E2E2E2E2E2E2E2E2E2E2E2E2E2E2E2E2E2E2E2E2E2E2E2E2E2E2E2E2E2E2E2E2E2E2E2E2E2E2E2E2E2E2E2E2E2E2E2
310
E2E2F5E2E2E2E2E2E2E2E2E2E2E2E2E2E2E2F50101010101010101010101F5E2E2E2E2E2E2E2E2E2E2E2E2E2E2E2E2F5E2E2E2E2E2E2E2E2E2E2E2E2E2E2E2E2E2E2E2E2E2E2E2E2E2E2E2E2E2E2E2E2E2E2E2E2E2E2E2E2E2E2E2E2E2E2E2E2E2E2E2E2E2E2E2E2E2E2E2E2E2E2E2E2E2E2E2E2E2E2E2E2F5E2E2E2E2E2E2
310
E22D2D2D2D2D2D2D2D2D2D2D2D2D2D2D2D2D2D2D2D2DE22D2D2D2D2D2D2D2D2D2D2D2D2DE22D2D2D2D2D2D2D2D2D2D2D2D2D2D2D2D2D2D2D2D2D2D2D2D2D2D2D2DE2E2E2E2E2E2E2E2E2E2E2E2E2E2E2E2E2E2E2E2E2E2E2E2E2E2E2E2E2E2E2E2E2E2E2E2E2E2E2E2E2E2E2E2E2E2E2E2E2E2E2E2E2E2E2E2E2E2E2E2E2E2
310
E2E2E2E2F5E2E2E2E2E2E2E2E2E2E2E2E2E2E2E2F50101010101000101010101F5E2E2E2E2E2E2E2E2E2E2E2E2E2E2E2E2F5E2E2E2E2E2E2E2E2E2E2E2E2E2E2E2E2E2E2E2E2E2E2E2E2E2E2E2E2E2E2E2E2E2E2E2E2E2E2E2E2E2E2E2E2E2E2E2E2E2E2E2E2E2E2E2E2E2E2E2E2E2E2E2E2E2E2E2E2E2E2E2E2F5E2E2E2E2
310
E2E2E22D2D2D2D2D2D2D2D2D2D2D2D2D2D2D2D2D2D2D2D2D2D2D2D2D2D2D2D2D2D2D2D2D2D2D2D2D2D2D2D2D2DE2E2E2E2E2E2E2E2E2E2E2E2E2E2E2E2E2E2E2E2E2E2E2E2E2E2E2E2E2E2E2E2E2E2E2E2E2E2E2E2E2E2E2E2E2E2E2E2E2E2E2E2E2E2E2E2E2E2E2E2E2E2E2E2E2E2E2E2E2E2E2E2E2E2E2E2E2E2E2E2E2E2
310
E2E2E2E2E2E2F5E2E2E2E2E2E2E2E2E2E2E2E2E2E2E2F50101010101010100010100F5E2E2E2E2E2E2E2E2E2E2E2E2E2E2E2E2F5E2E2E2E2E2E2E2E2E2E2E2E2E2E2E2E2E2E2E2E2E2E2E2E2E2E2E2E2E2E2E2E2E2E2E2E2E2E2E2E2E2E2E2E2E2E2E2E2E2E2E2E2E2E2E2E2E2E2E2E2E2E2E2E2E2E2E2E2E2E2E2E2F5E2E2
310
E2E2E2E2E2E22D2D2D2D2D2D2D2D2D2D2D2D2D2D2D2D2D2DE22D2D2DE22D2D2D2D2D2D2DE22D2D2D2D2D2D2D2D2D2DE2E2E2E2E2E2E2E2E2E2E2E2E2E2E2E2E2E2E2E2E2E2E2E2E2E2E2E2E2E2E2E2E2E2E2E2E2E2E2E2E2E2E2E2E2E2E2E2E2E2E2E2E2E2E2E2E2E2E2E2E2E2E2E2E2E2E2E2E2E2E2E2E2E2E2E2E2E2E2E2
310
E2E2E2E2E2E2E2E2F5E2E2E2E2E2E2E2E2E2E2E2E2E2E2E2F50001010000000100010101F5E2E2E2E2E2E2E2E2E2E2E2E2E2E2E2E2F5E2E2E2E2E2E2E2E2E2E2E2E2E2E2E2E2E2E2E2E2E2E2E2E2E2E2E2E2E2E2E2E2E2E2E2E2E2E2E2E2E2E2E2E2E2E2E2E2E2E2E2E2E2E2E2E2E2E2E2E2E2E2E2E2E2E2E2E2E2E2E2E2F5
310
E2E22D2DE22D2D2D2D2D2DE22D2D2D2D2D2D2D2D2D2D2D2D2DE22D2D2D2D2D2D2D2D2DE22D2D2D2D2D2D2D2D2D2D2D2D2D2D2D2D2D2D2D2DE22D2D2D2D2D2D2D2D2D2D2DE2E2E2E2E2E2E2E2E2E2E2E2E2E2E2E2E2E2E2E2E2E2E2E2E2E2E2E2E2E2E2E2E2E2E2E2E2E2E2E2E2E2E2E2E2E2E2E2E2E2E2E2E2E2E2E2E2E2E2
310
E2E2E2E2E2E2E2E2E2E2F5E2E2E2E2E2E2E2E2E2E2E2E2E2E2E2F50000000001010101010101F5E2E2E2E2E2E2E2E2E2E2E2E2E2E2E2E2F5E2E2E2E2E2E2E2E2E2E2E2E2E2E2E2E2E2E2E2E2E2E2E2E2E2E2E2E2E2E2E2E2E2E2E2E2E2E2E2E2E2E2E2E2E2E2E2E2E2E2E2E2E2E2E2E2E2E2E2E2E2E2E2E2E2E2E2E2E2E2E2
310
E2F5E2E22D2D2D2D2D2D2D2D2DE22D2D2D2D2D2D2D2D2D2D2D2D2DE22D2D2D2D2D2D2D2D2D2D2D2D2D2D2D2D2D2D2D2D2D2D2D2D2D2D2D2D2D2D2D2D2D2D2D2D2D2D2D2D2D2DE2E2E2E2E2E2E2E2E2E2E2E2E2E2E2E2E2E2E2E2E2E2E2E2E2E2E2E2E2E2E2E2E2E2E2E2E2E2E2E2E2E2E2E2E2E2E2E2E2E2E2E2E2E2E2E2E2
310
E2E2E2E2E2E2E2E2E2E2E2E2F5E2E2E2E2E2E2E2E2E2E2E2E2E2E2E2F50000000101010101010101F5E2E2E2E2E2E2E2E2E2E2E2E2E2E2E2E2F5E2E2E2E2E2E2E2E2E2E2E2E2E2E2E2E2E2E2E2E2E2E2E2E2E2E2E2E2E2E2E2E2E2E2E2E2E2E2E2E2E2E2E2E2E2E2E2E2E2E2E2E2E2E2E2E2E2E2E2E2E2E2E2E2E2E2E2E2E2
310
E2E2E2F5E2E22D2D2D2D2D2D2D2D2D2D2D2D2D2D2D2D2D2D2D2D2D2D2D2D2D2D2D2D2D2D2D2D2D2D2D2D2D2D2D2D2D2D2D2D2D2D2D2D2D2D2D2D2D2D2D2D2D2D2D2D2D2D2D2D2D2D2D2D2DE2E2E2E2E2E2E2E2E2E2E2E2E2E2E2E2E2E2E2E2E2E2E2E2E2E2E2E2E2E2E2E2E2E2E2E2E2E2E2E2E2E2E2E2E2E2E2E2E2E2E2E2
310
E2E2E2E2E2E2E2E2E2E2E2E2E2E2F5F5F5F5F5F5F5F5F5F5F5F5F5F5F5F5F5F5F5F5F5F5F5F5F5F5F5F5F5F5F5F5F5F5F5F5F5F5F5F5F5F5F5F5F5F5E2E2E2E2E2E2E2E2E2E2E2E2E2E2E2E2E2E2E2E2E2E2E2E2E2E2E2E2E2E2E2E2E2E2E2E2E2E2E2E2E2E2E2E2E2E2E2E2E2E2E2E2E2E2E2E2E2E2E2E2E2E2E2E2E2E2E2
310
E2E2E2E2E2F5E2E22D2D2D2D2D2D2D2D2D2D2D2D2D2D2D2D2D2D2D2D2D2D2D2D2D2D2D2D2D2D2D2D2D2D2D2D2D2D2D2D2D2D2D2D2D2D2D2D2D2D2D2DE22D2D2D2D2D2D2D2D2D2D2D2D2D2D2D2DE2E2E2E2E2E2E2E2E2E2E2E2E2E2E2E2E2E2E2E2E2E2E2E2E2E2E2E2E2E2E2E2E2E2E2E2E2E2E2E2E2E2E2E2E2E2E2E2E2E2
310
E2E2E2E2E2E2E2E2E2E2E2E2E2E2E2E2E2E2E2E2E2E2E2E2E2E2E2E2E2E2E2E2E2E2E2E2E2E2E2E2E2E2E2E2E2E2E2E2E2E2E2E2E2E2E2E2E2E2E2E2E2F5E2E2E2E2E2E2E2E2E2E2E2E2E2E2E2E2E2E2E2E2E2E2E2E2E2E2E2E2E2E2E2E2E2E2E2E2E2E2E2E2E2E2E2E2E2E2E2E2E2E2E2E2E2E2E2E2E2E2E2E2E2E2E2E2E2
310
E2E2E2E2E2E2E2F5E2E22D2DE22D2D2D2D2D2D2D2D2D2DE22D2D2D2D2D2D2D2D2D2D2D2D2D2D2D2D2D2D2D2D2D2DE22D2D2D2D2D2D2D2DE22D2D2D2D2D2D2DE22D2D2D2D2D2D2DE22D2D2D2D2D2D2D2D2D2D2D2D2D2DE2E2E2E2E2E2E2E2E2E2E2E2E2E2E2E2E2E2E2E2E2E2E2E2E2E2E2E2E2E2E2E2E2E2E2E2E2E2E2E2E2
310
E2E2E2E2E2E2E2E2E2E2E2E2E2E2E2E2E2E2E2E2E2E2E2E2E2E2E2E2E2E2E2E2E2E2E2E2E2E2E2E2E2E2E2E2E2E2E2E2E2E2E2E2E2E2E2E2E2E2E2E2E2E2E2F5E2E2E2E2E2E2E2E2E2E2E2E2E2E2E2E2E2E2E2E2E2E2E2E2E2E2E2E2E2E2E2E2E2E2E2E2E2E2E2E2E2E2E2E2E2E2E2E2E2E2E2E2E2E2E2E2E2E2E2E2E2E2E2
310
E2E2E2E2E2E2E2E2E2F5E2E22D2D2D2D2D2D2D2D2D2D2D2D2D2D2D2D2D2D2D2D2D2D2D2D2D2D2D2D2D2D2D2D2D2D2D2DE22D2D2D2D2D2D2D2D2D2D2D2D2D2D2D2D2D2D2D2D2D2D2D2D2D2D2D2D2D2D2D2D2D2D2D2D2D2D2DE2E2E2E2E2E2E2E2E2E2E2E2E2E2E2E2E2E2E2E2E2E2E2E2E2E2E2E2E2E2E2E2E2E2E2E2E2E2E2
310
E20F0F0F0F0FE20F0FE20F0F0F0F0F0FE2E2E2E2E2E2E2E2E2E2E2E2E2E2E2E2E2E2E2E2E2E2E2E2E2E2E2E2E2E2E2E2E2E2E2E2E2E2E2E2E2E2E2E2E2E2E2E2E2F5E2E2E2E2E2E2E2E2E2E2E2E2E2E2E2E2E2E2E2E2E2E2E2E2E2E2E2E2E2E2E2E2E2E2E2E2E2E2E2E2E2E2E2E2E2E2E2E2E2E2E2E2E2E2E2E2E2E2E2E2E2
310
E2E2E2E2E2E2E2E2E2E2E2F5E2E22D2D2D2D2D2D2D2D2D2D2D2D2D2D2D2D2D2D2D2D2D2D2D2D2D2D2D2D2D2D2D2D2D2D2DE22D2D2D2D2D2D2D2D2D2D2D2D2D2D2D2D2D2DE2E2E2E2E2E2E2E2E2E2E2E2E2E2E2E2E2E2E2E2E2E2E2E2E2E2E2E2E2E2E2E2E2E2E2E2E2E2E2E2E2E2E2E2E2E2E2E2E2E2E2E2E2E2E2E2E2E2E2
310
E2E2E20F0F0F0F0FE20F0F0F0F0F0F0F0F0FE2E2E2E2E2E2E20F0F0F0F0F0F0FE2E20FE2E2E2E2E2E2E20FE2E2E2E2E2E2E2E2E2E2E2E2E2E2E2E2E2E2E2E2E2E2E2E2F5E2E2E2E2E2E2E2E2E2E2E2E2E2E2E2E2E2E2E2E2E2E2E2E2E2E2E2E2E2E2E2E2E2E2E2E2E2E2E2E2E2E2E2E2E2E2E2E2E2E2E2E2E2E2E2E2E2E2E2
310
E2E2E2E2E2E2E2E2E2E2E2E2E2F5E2E2E22D2D2D2D2D2D2D2D2D2D2D2D2D2D2D2D2D2D2D2D2D2D2DE22D2D2D2D2D2D2D2D2D2D2D2D2D2D2D2D2D2D2D2D2D2D2D2D2D2D2D2DE2E2E2E2E2E2E2E2E2E2E2E2E2E2E2E2E2E2E2E2E2E2E2E2E2E2E2E2E2E2E2E2E2E2E2E2E2E2E2E2E2E2E2E2E2E2E2E2E2E2E2E2E2E2E2E2E2E2
310
E2E2E2E2E20F0F0F0F0FE20F0F0F0F0F0F0F0F0FE2E2E2E2E2E2E20F0F0F0F0F0F0F0F0F0F0F0FE2E2E20F0F0F0F0FE2E2E2E2E2E2E2E2E2E2E2E2E2E2E2E2E2E2E2E2E2E2F5E2E2E2E2E2E2E2E2E2E2E2E2E2E2E2E2E2E2E2E2E2E2E2E2E2E2E2E2E2E2E2E2E2E2E2E2E2E2E2E2E2E2E2E2E2E2E2E2E2E2E2E2E2E2E2E2E2
310
E2E2E2E2E2E2E2E2E2E2E2E2E2E2E2F5E2E22D2D2D2D2D2D2D2D2DE22D2D2D2D2D2D2D2D2D2D2D2D2D2D2D2D2D2D2D2D2D2D2D2D2D2D2D2D2D2D2D2DE2E2E2E2E2E2E2E2E2E2E2E2E2E2E2E2E2E2E2E2E2E2E2E2E2E2E2E2E2E2E2E2E2E2E2E2E2E2E2E2E2E2E2E2E2E2E2E2E2E2E2E2E2E2E2E2E2E2E2E2E2E2E2E2E2E2E2
310
E2E2E2E2E2E2E2E2E2E2E2E2E2E2E2E2E2E2E2E2E2E20F0F0FE2E2E2E20F0F0FE2E20F0FE2E2E2E20FE2E2E20FE2E2E2E2E2E2E2E2E2E2E2E2E2E2E2E2E2E2E2E2E2E2E2E2E2E2F5E2E2E2E2E2E2E2E2E2E2E2E2E2E2E2E2E2E2E2E2E2E2E2E2E2E2E2E2E2E2E2E2E2E2E2E2E2E2E2E2E2E2E2E2E2E2E2E2E2E2E2E2E2E2E2
310
E2E2E2E2E2E2E2E2E2E2E2E2E2E2E2E2E2F5E2E22D2D2D2D2D2D2D2D2D2D2D2D2D2D2D2D2D2D2D2D2D2D2D2D2D2D2D2D2D2D2D2D2D2D2D2D2D2D2D2D2D2D2D2D2D2D2DE22D2D2D2DE22D2D2D2D2D2D2D2D2D2D2D2D2D2D2D2D2D2D2D2D2D2D2D2D2DE2E2E2E2E2E2E2E2E2E2E2E2E2E2E2E2E2E2E2E2E2E2E2E2E2E2E2E2E2
310
E2E2E2E2E2E2E2E2E2E2E20F0F0F0F0F0F0F0F0F0F0FE2E2E2E20FE2E2E2E2E2E2E2E2E2E2E2E2E2E2E20FE2E2E20FE2E20F0FE20FE2E2E2E2E2E2E20F0F0FE2E2E2E2E2E2E2E2E2E2F5E2E2E2E2E2E2E2E2E2E2E2E2E2E2E2E2E2E2E2E2E2E2E2E2E2E2E2E2E2E2E2E2E2E2E2E2E2E2E2E2E2E2E2E2E2E2E2E2E2E2E2E2E2
310
E2E2E2E2E2E2E2E2E2E2E2E2E2E2E2E2E2E2E2F5E2E2E2E2E2E22D2D2D2D2D2D2D2D2D2D2D2D2D2D2D2D2D2D2D2D2D2D2D2D2DE22D2D2D2D2D2D2D2D2D2D2D2D2D2D2D2D2D2D2D2D2D2D2D2D2D2D2D2D2D2D2D2D2D2D2D2D2D2D2D2D2D2D2D2D2D2D2D2DE2E2E2E2E2E2E2E2E2E2E2E2E2E2E2E2E2E2E2E2E2E2E2E2E2E2E2
310
E2E2E2E2E2E2E2E2E2E2E2E2E2E20F0F0F0F0F0F0FE20F0FE2E2E2E20FE2E2E2E2E2E2E2E2E2E2F5E2E2E2E20FE2E2E20F0F0F0F0F0F0F0F0F0F0F0F0F0F0F0F0FE2E20FE2E2E2E2E2E2E2F5E2E2E2E2E2E2E2E2E2E2E2E2E2E2E2E2E2E2E2E2E2E2E2E2E2E2E2E2E2E2E2E2E2E2E2E2E2E2E2E2E2E2E2E2E2E2E2E2E2E2E2
310
E2E2E2E2E2E2E2E2E2E2E2E2E2E2E2E2E2E2E2E2E2F5E2E22D2DE22D2D2D2D2D2D2D2D2D2D2D2D2D2D2D2D2D2D2D2D2D2D2D2D2D2D2D2D2D2D2D2D2D2D2D2D2D2D2D2D2D2D2D2D2D2D2D2D2D2D2D2D2D2D2D2D2D2D2D2D2D2D2D2D2D2D2D2D2D2D2D2D2D2D2DE2E2E2E2E2E2E2E2E2E2E2E2E2E2E2E2E2E2E2E2E2E2E2E2E2
310
E2E2E2E2E2E2E2E2E2E2E2E2E2E2E2E20F0F0FE20F0F0F0F0F0FE2E2E2E20FE2E2E2E2E2E2E2E2E2E2F5E2E2E2E20FE2E2E20F0FE2E2E20FE2E20FE2E2E2E2E20F0F0FE2E20FE2E2E2E2E2E2E2F5E2E2E2E2E2E2E2E2E2E2E2E2E2E2E2E2E2E2E2E2E2E2E2E2E2E2E2E2E2E2E2E2E2E2E2E2E2E2E2E2E2E2E2E2E2E2E2E2E2
310
E2E2E2E2E2E2E2E2E2E2E2E2E2E2E2E2E2E2E2E2E2E2E2F5E2E22D2D2D2D2D2D2D2D2D2D2D2D2D2D2D2D2D2DE22D2DE22D2D2D2D2D2D2D2D2D2D2D2D2D2D2D2D2D2D2D2D2D2D2D2D2D2D2D2D2D2D2DE22D2D2D2D2D2D2D2D2D2D2D2D2D2D2DE2E2E2E2E2E2E2E2E2E2E2E2E2E2E2E2E2E2E2E2E2E2E2E2E2E2E2E2E2E2E2E2
310
E2E2E2E2E2E2E2E2E2E2E2E2E2E2E2E2E2E2E2E2E2E2E2E2E2E2E2E2E2E2E20F0F0F0F0F0F0FF5F5F5F5F5F5F5F5F5F50FE2E2E20F0FF5F5F50FF5F50FF5F5E2E2E2E2E2E2E2E20F0FE2E2E2E2E2E2F5E2E2E2E2E2E2E2E2E2E2E2E2E2E2E2E2E2E2E2E2E2E2E2E2E2E2E2E2E2E2E2E2E2E2E2E2E2E2E2E2E2E2E2E2E2E2E2
310
E2E2E2E2E2E2E2E2E2E2E2E2E2E2E2E2E2E2E2E2E2E2E2E2E2F5E2E22D2D2D2D2D2D2D2D2D2D2D2D2D2D2D2D2D2D2D2D2D2D2D2D2D2D2D2D2D2D2D2D2D2D2D2D2D2D2D2D2D2D2D2D2D2D2D2D2D2D2D2D2D2D2D2D2D2D2D2D2D2D2D2D2D2D2D2D2D2DE2E2E2E2E2E2E2E2E2E2E2E2E2E2E2E2E2E2E2E2E2E2E2E2E2E2E2E2E2
310
E2E2E2E2E2E2E2E2E2E2E2E2E2E2E2E2E2E2E2E2E2E2E2E2E2E2E2E2E2E2E2E2E2E2E2E2E2E2E2E2F5E2E2E2E2F5E2E2E2E2F5E2E2E2F50FE2E2E20FE2E20FE2F5E2E2E2E2E2E2E2E20F0FE2E2E2E2E2E2F5E2E2E2E2E2E2E2E2E2E2E2E2E2E2E2E2E2E2E2E2E2E2E2E2E2E2E2E2E2E2E2E2E2E2E2E2E2E2E2E2E2E2E2E2E2
310
E2E2E2E2E2E2E2E2E2E2E2E2E2E2E2E2E2E2E2E2E2E2E2E2E2E2E2F5E2E2E2E2E2E22D2D2D2D2D2D2D2D2D2D2D2D2D2D2D2D2DE22D2D2D2D2D2D2D2D2D2D2D2D2D2D2D2D2DE22D2D2D2DE22D2D2D2D2D2D2D2D2D2D2D2DE22D2DE22D2D2DE2E2E2E2E2E2E2E2E2E2E2E2E2E2E2E2E2E2E2E2E2E2E2E2E2E2E2E2E2E2E2E2E2
310
E2E2E2E2E2E2E2E2E2E2E2E2E2E2E2E2E2E2E2E2E2E2E2E2E2E2E2E2E2E2E2E2E2E2E20F0F0F0F0F0F0F0F0FF5F5F5F5F5F5F5F5F5E2E2E2F50FF5F5F50FF5F50F0F0F0F0F0F0F0F0F0F0F0F0F0F0F0FE2E2E2F5E2E2E2E2E2E2E2E2E2E2E2E2E2E2E2E2E2E2E2E2E2E2E2E2E2E2E2E2E2E2E2E2E2E2E2E2E2E2E2E2E2E2E2
310
E2E2E2E2E2E2E2E2E2E2E2E2E2E2E2E2E2E2E2E2E2E2E2E2E2E2E2E2E2F5E2E22D2D2D2D2D2D2D2D2D2D2D2D2D2D2D2D2D2D2D2D2D2D2D2D2D2D2D2D2D2D2D2D2D2D2D2D2D2D2D2D2D2D2D2D2D2D2D2D2D2D2D2D2D2D2D2D2D2D2D2D2D2D2D2DE2E2E2E2E2E2E2E2E2E2E2E2E2E2E2E2E2E2E2E2E2E2E2E2E2E2E2E2E2E2E2
310
E2E2E2E2E2E2E2E2E2E2E2E2E2E2E2E2E2E2E2E2E2E2E2E2E2E2E2E2E2E2E2E2E2E2E2E2E2E20FE2E2E2E2E2F5E2F5E2E2F5E2E2E2F5F5E2E2E2F5F5E2E2E20FE2E2F5E2F5E2E2E2E2E2E2E2E2E2E2E2E20F0FE2E2F5E2E2E2E2E2E2E2E2E2E2E2E2E2E2E2E2E2E2E2E2E2E2E2E2E2E2E2E2E2E2E2E2E2E2E2E2E2E2E2E2E2
310
E2E2E2E2E2E2E2E2E2E2E2E2E2E2E2E2E2E2E2E2E2E2E2E2E2E2E2E2E2E2E2F5E2E22D2D2D2D2D2D2D2D2D2D2D2D2D2DE22D2D2D2D2D2D2D2DE22D2DE22D2D2D2D2D2D2D2D2D2D2D2D2DE2E2E2E2E2E2E2E2E2E2E2E2E2E2E2E2E2E2E2E2E2E2E2E2E2E2E2E2E2E2E2E2E2E2E2E2E2E2E2E2E2E2E2E2E2E2E2E2E2E2E2E2E2
310
E2E2E2E2E2E2E2E2E2E2E2E2E2E2E2E2E2E2E2E2E2E2E2E2E2E2E2E2E2E2E2E2E2E2E2E2E2E2E2E20FE2E2E2E2E2F5E2F5E2E2F5E2E2E2F5F5E2E2E2F5F5E2E2E20FE2E2F5E2F5E2E2E2E2E2E2E20F0F0FE2E20F0FE2E2F5E2E2E2E2E2E2E2E2E2E2E2E2E2E2E2E2E2E2E2E2E2E2E2E2E2E2E2E2E2E2E2E2E2E2E2E2E2E2E2
310
E2E2E2E2E2E2E2E2E2E2E2E2E2E2E2E2E2E2E2E2E2E2E2E2E2E2E2E2E2E2E2E2E2F52D2D2D2D2D2D2D2D2D2D2D2D2D2D2D2D2D2D2D2D2D2D2D2D2D2D2D2D2D2D2D2DE22DE22D2D2D2D2D2D2D2DE2E2E2E2E2E2E2E2E2E2E2E2E2E2E2E2E2E2E2E2E2E2E2E2E2E2E2E2E2E2E2E2E2E2E2E2E2E2E2E2E2E2E2E2E2E2E2E2E2E2
310
E2E2E2E2E2E2E2E2E2E2E2E2E2E2E2E2E2E2E2E2E2E2E2E2E2E2E2E2E2E2E2E2E2E2E2E2E2E2E2E2E2E20FE2E2E2E2E2F5E2F5E2E2F5E2E2E2F5F5E2E2E2F5F5E2E2E20FE2E2F5E2F5E2E2E2E2E2E2E20F0F0FE2E20FE2E2E2F5E2E2E2E2E2E2E2E2E2E2E2E2E2E2E2E2E2E2E2E2E2E2E2E2E2E2E2E2E2E2E2E2E2E2E2E2E2
310
E2E2E2E2E2E2E2E2E2E2E2E2E2E2E2E2E2E2E2E2E2E2E2E2E2E2E2E2E2E2E2E2E2E2E2F52D2D2D2D2D2D2D2D2D2D2D2D2D2D2D2D2D2D2D2DE22D2D2D2D2D2D2D2DE2E2E2E2E2E2E2E2E2E2E2E2E2E2E2E2E2E2E2E2E2E2E2E2E2E2E2E2E2E2E2E2E2E2E2E2E2E2E2E2E2E2E2E2E2E2E2E2E2E2E2E2E2E2E2E2E2E2E2E2E2E2
310
E2E2E2E2E2E2E2E2E2E2E2E2E2E2E2E2E2E2E2E2E2E2E2E2E2E2E2E2E2E2E2E2E2E2E2E2E2E2E2E2E2E2E2E20FE2E2E2E2E2F5E2F5E2E2F5E2E2E2F5F5E2E2E2F5F5E2E2E20FE2E2F5E2F5E2E2E2E2E2E2E2E20F0FE2E20FE2E2E2F5E2E2E2E2E2E2E2E2E2E2E2E2E2E2E2E2E2E2E2E2E2E2E2E2E2E2E2E2E2E2E2E2E2E2E2
310
E2E2E2E2E2E2E2E2E2E2E2E2E2E2E2E2E2E2E2E2E2E2E2E2E2E2E2E2E2E2E2E2E2E2E2E2E2F52D2D2DE2E2E22D2D2DE2E2E22D2D2DE2E2E22DE2E22DE2E22D2DE22DE2E2E2E2E2E2E2E2E2E2E2E2E2E2E2E2E2E2E2E2E2E2E2E2E2E2E2E2E2E2E2E2E2E2E2E2E2E2E2E2E2E2E2E2E2E2E2E2E2E2E2E2E2E2E2E2E2E2E2E2E2
310
E2E2E2E2E2E2E2E2E2E2E2E2E2E2E2E2E2E2E2E2E2E2E2E2E2E2E2E2E2E2E2E2E2E2E2E2E2E2E2E2E2E2E2E2E2E2E2E2E2F5F5F5F5F5F5F5F5F5F5F5F5F5F5F5F5F5F5F5F5F5F50FF5F5F5F5F5F5F50F0F0F0F0F0F0FE2E2E20FE2E2E2F5E2E2E2E2E2E2E2E2E2E2E2E2E2E2E2E2E2E2E2E2E2E2E2E2E2E2E2E2E2E2E2E2E2
310
E2E2E2E2E2E2E2E2E2E2E2E2E2E2E2E2E2E2E2E2E2E2E2E2E2E2E2E2E2E2E2E2E2E2E2E2E2E2E2F5E2E2E2E2E2E2E2E2E2E2E2E2E2E2E2E2E2E2E2E2E2E2E2E2E2E2E2E2E2E2E2E2E2E2E2E2E2E2E2E2E2E2E2E2E2E2E2E2E2E2E2E2E2E2E2E2E2E2E2E2E2E2E2E2E2E2E2E2E2E2E2E2E2E2E2E2E2E2E2E2E2E2E2E2E2E2E2
310
E2E2E2E2E2E2E2E2E2E2E2E2E2E2E2E2E2E2E2E2E2E2E2E2E2E2E2E2E2E2E2E2E2E2E2E2E2E2E2E2E2E2E2E2E2E2E2E2E2E2E2F5E2E2F5E2F5E2E2F5E2E2E2F5F5E2E2E2F5F5E2E2E20FE2E2F5E2F5E2E2F5E2E2E2E2E20FE2E2E20FE2E2E2F5E2E2E2E2E2E2E2E2E2E2E2E2E2E2E2E2E2E2E2E2E2E2E2E2E2E2E2E2E2E2E2
310
E2E2E2E2E2E2E2E2E2E2E2E2E2E2E2E2E2E2E2E2E2E2E2E2E2E2E2E2E2E2E2E2E2E2E2E2E2E2E2E2E2F5E2E2E2E2E2E2E2E2E2E2E2E2E2E2E2E2E2E2E2E2E2E2E2E2E2E2E2E2E2E2E2E2E2E2E2E2E2E2E2E2E2E2E2E2E2E2E2E2E2E2E2E2E2E2E2E2E2E2E2E2E2E2E2E2E2E2E2E2E2E2E2E2E2E2E2E2E2E2E2E2E2E2E2E2E2
310
E2E2E2E2E2E2E2E2E2E2E2E2E2E2E2E2E2E2E2E2E2E2E2E2E2E2E2E2E2E2F5F5F5F5F5F5F5F5F5F5F5E2F5E2F5E2E2E2E2E2E2E2E2F5E2E2F5E2F5E2E2F5E2E2E2F5F5E2E2E2F5F5E2E2E20FE2E2F5E2F5E2E2F5E2E2E2E2E20F0FE2E20FE2E2E2F5E2E2E2E2E2E2E2E2E2E2E2E2E2E2E2E2E2E2E2E2E2E2E2E2E2E2E2E2E2
310
E2E2E2E2E2E2E2E2E2E2E2E2E2E2E2E2E2E2E2E2E2E2E2E2E2E2E2E2E2E2E2E2E2E2E2E2E2E2E2E2E2E2E2F5E2E2E2E2E2E2E2E2E2E2E2E2E2E2E2E2E2E2E2E2E2E2E2E2E2E2E2E2E2E2E2E2E2E2E2E2E2E2E2E2E2E2E2E2E2E2E2E2E2E2E2E2E2E2E2E2E2E2E2E2E2E2E2E2E2E2E2E2E2E2E2E2E2E2E2E2E2E2E2E2E2E2E2
310
E2E2E2E2E2E2E2E2E2E2E2E2E2E2E2E2E2E2E2E2E2E2E2E2E2E2E2E2E2E2E2E2E2F5F5F5F5E2F5E2E2F5F5E2F5E2F5E2E2E2E2E2E2E2E2F5E2E2F5E2F5E2E2F5E2E2E2F5F5E2E2E2F5F5E2E2E20FE2E2F5E2F5E2E2F5E2E2E2E2E20F0FE2E20FE2E2E2F5E2E2E2E2E2E2E2E2E2E2E2E2E2E2E2E2E2E2E2E2E2E2E2E2E2E2E2
310
E2E2E2E2E2E2E2E2E2E2E2E2E2E2E2E2E2E2E2E2E2E2E2E2E2E2E2E2E2E2E2E2E2E2E2E2E2E2E2E2E2E2E2E2E2F5E2E2E2E2E2E2E2E2E2E2E2E2E2E2E2E2E2E2E2E2E2E2E2E2E2E2E2E2E2E2E2E2E2E2E2E2E2E2E2E2E2E2E2E2E2E2E2E2E2E2E2E2E2E2E2E2E2E2E2E2E2E2E2E2E2E2E2E2E2E2E2E2E2E2E2E2E2E2E2E2E2
310
E2E2E2E2E2E2E2E2E2E2E2E2E2E2E2E2E2E2E2E2E2E2E2E2E2E2E2E2E2E2E2E2E2E2F5F5F5F5F5E2F5F5E2F5F5E2E2E2F5E2E2E2E2E2E2E2E2F5E2E2F5E2F5E2E2F5E2E2E2F5F5E2E2E2F5F5E2E2E20FE2E2F5E2F5E2E2F5E2E2E2E2E20FE2E2E20FE2E2E2F5E2E2E2E2E2E2E2E2E2E2E2E2E2E2E2E2E2E2E2E2E2E2E2E2E2
310
E2E2E2E2E2E2E2E2E2E2E2E2E2E2E2E2E2E2E2E2E2E2E2E2E2E2E2E2E2E2E2E2E2E2E2E2E2E2E2E2E2E2E2E2E2E2E2F5E2E2E2E2E2E2E2E2E2E2E2E2E2E2E2E2E2E2E2E2E2E2E2E2E2E2E2E2E2E2E2E2E2E2E2E2E2E2E2E2E2E2E2E2E2E2E2E2E2E2E2E2E2E2E2E2E2E2E2E2E2E2E2E2E2E2E2E2E2E2E2E2E2E2E2E2E2E2E2
310
E2E2E2E2E2E2E2E2E2E2E2E2E2E2E2E2E2E2E2E2E2E2E2E2E2E2E2E2E2E2E2E2E2E2E2E2E2E2F5F5F5F5F5F5F5F5E2F5F5E2E2E2E2E2E2E2E2E2E2F5E2E2F5E2F5E2E2F5E2E2E2F5F5E2E2E2F5F5E2E2E20FE2E2F5E2F5E2F5F5E2E2E2E2E20FE2E20F0F0FE2E2F5E2E2E2E2E2E2E2E2E2E2E2E2E2E2E2E2E2E2E2E2E2E2E2
310
E2E2E2E2E2E2E2E2E2E2E2E2E2E2E2E2E2E2E2E2E2E2E2E2E2E2E2E2E2E2E2E2E2E2E2E2E2E2E2E2E2E2E2E2E2E2E2E2E2F5E2E2E2E2E2E2E2E2E2E2E2E2E2E2E2E2E2E2E2E2E2E2E2E2E2E2E2E2E2E2E2E2E2E2E2E2E2E2E2E2E2E2E2E2E2E2E2E2E2E2E2E2E2E2E2E2E2E2E2E2E2E2E2E2E2E2E2E2E2E2E2E2E2E2E2E2E2
310
E2E2E2E2E2E2E2E2E2E2E2F5F5E2E2E2E2E2E2E2E2E2E2E2E2E2E2E2E2E2E2E2E2E2E2E2E2E2E2E2F5F5F5F5E2F5F5E2E2F5F5E2E2E2E2E2E2E2E2E2E2F5E2E2F5E2F5E2E2F5E2E2E2F5F5E2E2E2F5F5E2E2E20FE2E2F5E2F5E2F5E2E2E2E2E2E2E2E2E2E20F0FE2E2F5E2E2E2E2E2E2E2E2E2E2E2E2E2E2E2E2E2E2E2E2E2
310
E2E2E2E2E2E2E2E2E2E2E2E2E2E2E2E2E2E2E2E2E2E2E2E2E2E2E2E2E2E2E2E2E2E2E2E2E2E2E2E2E2E2E2E2E2E2E2E2E2E2E2F5E2E2E2E2E2E2E2E2E2E2E2E2E2E2E2E2E2E2E2E2E2E2E2E2E2E2E2E2E2E2E2E2E2E2E2E2E2E2E2E2E2E2E2E2E2E2E2E2E2E2E2E2E2E2E2E2E2E2E2E2E2E2E2E2E2E2E2E2E2E2F5F5F5F5F5
310
F5F5F5E2E2E2E2E2E2E2E2E2E2F5F5E2E2E2E2E2E2E2E2E2E2E2E2E2E2E2E2E2E2E2E2E2E2E2E2E2E2E2F5F5F5F5F5F5F5E2E2F5F5E2E2E2E2E2E2E2E2E2E2F5F5E2F5E2F5E2E2F5E2E2E2F5F5E2E2E2F5F5E2E2E20FE2E2F5E2F5E2F5E2E2E2E2E2E2E2E2E2E20F0FE2E2F5E2E2E2E2E2E2E2E2E2E2E2E2E2E2E2E2E2E2E2
310
E2E2E2E2E2E2E2E2E2E2E2E2E2E2E2E2E2E2E2E2E2E2E2E2E2E2E2E2E2E2E2E2E2E2E2E2E2E2E2E2E2E2E2E2E2E2E2E2E2E2E2E2E2F5E2E2E2E2E2E2E2E2E2E2E2E2E2E2E2E2E2E2E2E2E2E2E2E2E2E2E2E2E2E2E2E2E2E2E2E2E2E2E2E2E2E2E2E2E2E2E2E2E2E2E2E2E2E2E2E2E2E2E2E2E2E2E2E2E2E2E20FE2F5F5E2E2
310
E2E2E2E2F5F5E2E2E2E2F5F5F5F5F5F5F5E2E2E2E2E2E2E2E2E2E2E2E2E2E2E2E2E2E2E2E2E2E2E2E2E2E2E2E2E2E2E2E2E2E2E2E2E2E2E2E2E2E2E2E2E2E2E2E2E2F5E2F5E2F5E2E20FE2E2E2F5F5E2E2E2F5F5E2E2E20FE2E2F5E2F5F5F5E2E2E2E2E2E2E2E2E2E20FE2E2E2F5E2E2E2E2E2E2E2E2E2E2E2E2E2E2E2E2E2
310
E2E2E2E2E2E2E2E2E2E2E2E2E2E2E2E2E2E2E2E2E2E2E2E2E2E2E2E2E2E2E2E2E2E2E2E2E2E2E2E2E2E2E2E2E2E2E2E2E2E2E2E2E2E2E2F5E2E2E2E2E2E2E2E2E2E2E2E2E2E2E2E2E2E2E2E2E2E2E2E2E2E2E2E2E2E2E2E2E2E2E2E2E2E2E2E2E2E2E2E2E2E2E2E2E2E2E2E2E2E2E2E2E2E2E2E2E2E2E2E2E2E2E20FF5E2E2
310
E2E2E2E2E2E2E2F5F5E2E2F5E2E2E2E2E2F5F5E2E2E2E2E2E2E2E2E2E2E2E2E2E2E2E2E2E2E2E2E2E2E2E2E2E2E2E2E2E2E2E2E2E2E2E2E2E2E2E2E2E2E2E2E2E2E2E2E2E2F5F5E2F5E2E2F5E2E2F5F5F5E2E2E2F5F5F5E2E20FE2E2F5E2F5F5E2E2E2E2E2E2E2E2E2E2E20F0FE2E2F5E2E2E2E2E2E2E2E2E2E2E2E2E2E2E2
310
E2E2E2E2E2E2E2E2E2E2E2E2E2E2E2E2E2E2E2E2E2E2E2E2E2E2E2E2E2E2E2E2E2E2E2E2E2E2E2E2E2E2E2E2E2E2E2E2E2E2E2E2E2E2E2E2E2F5E2E2E2E2E2E2E2E2E2E2E2E2E2E2E2E2E2E2E2E2E2E2E2E2E2E2E2E2E2E2E2E2E2E2E2E2E2E2E2E26A6A6A6A6A6AE26A6A6A6A6A6AE26A6A6A6A6A6AE26A6A6A6A6A6AF56A
310
6A6A6A6A6A6A6A6A6A6A6A6A6A6A6A6A6A6AE26A6A6A6A6A6AE2E2E2E2E2E2E2E2E2E2E2E2E2E2E2E2E2E2E2E2E2E2E2E2E2E2E2E2E2E2E2E2E2E2E2E2E2E2E2E2E2E2E2E2E2E2F50F0F0FF5E2F5E2F5F5E2F5E2E2E2F5E2F5F5E20FE2F5F5F5F5F5E2E2E2E2E2E2E2E2E2E2E20F0FE2E2F5E2E2E2E2E2E2E2E2E2E2E2E2E2
310
E2E2E2E2E2E2E2E2E2E2E2E2E2E2E2E2E2E2E2E2E2E2E2E2E2E2E2E2E2E2E2E2E2E2E2E2E2E2E2E2E2E2E2E2E2E2E2E2E2E2E2E2E2E2E2E2E2E2E2F5E2E2E2E2E20F0F0F0F0F0F0F0F0F0F0F0F0F0F0F0F0F0F0F0F0F0F0F0F0F0F0F0F0F0F0F0F0F0F0F6A9E9E9E9E6A0F6A9E9E9E9E6A0F6A9E9E9E9E6AE26A9E9E9E9E6A
310
F59E9E9E9E9E6A6A9E9E9E9E9E6A6A9E9E9E9E9EE26A9E9E9E9E9EE2E2E2E2E2E2E2E2E2E2E2E2E2E2E2E2E2E2E2E2E2E2E2E2E2E2E2E2E2E2E2E2E2E2E2E2E2E2E2E2E2E2E2E2E2E2E20F0FE2F5F5F5F5F5F5F5E2E2E2E2E2F5F5F5F50F0F0F0F0F0F0F0F0F0F0F0F0F0F0F0F0F0F0FE2E2E2F5E2E2E2E2E2E2E2E2E2E2E2
310
E2E2E2E2E2E2E2E2E2E2E2E2E2E2E2E2E2E2E2E2E2E2E2E2E2E2E2E2E2E2E2E2E2E2E2E2E2E2E2E2E2E2E2E2E2E2E2E2E2E2E2E2E2E2E2E2E2E2E2E2E2F5E2E2E2E2E20F0FE2E2E2E2E2E2E2E2E2E2E2E2E2E2E2E2E2E2E2E2E2E2E2E2E2E2E2E2E2E2E2E2E26A9EE2E29E6AE26A9EE2E29E6AE26A9EE2E29E6AE26A9EE2E2
310
9E6A0F9EE2E2E29E6A6A9EE2E2E29E6A6A9EE2E2E29EE26A9EE2E2E29EE2E2E2E2E2E2E2E2E2E2E2E2E2E2E2E2E2E2E2E2E2E2E2E2E2E2E2E2E2E20F0F0F0F0F0FE2E2E2E2E2E2E2E2E20F0FE2F5F5F5E2F5E2F5F5E2E2E2E2E2E2E2F5F5E20FE2F5F5F5E2E2E2E2E2E2E2E2E2E2E2E2E2E2E2E2E2F5E2E2E2E2E2E2E2E2E2
310
E2E2E2E2E2E2E2E2E2E2E2E2E2E2E2E2E2E2E2E2E2E2E2E2E2E2E2E2E2E2E2E2E2E2E2E2E2E2E2E2E2E2E2E2E2E2E2E2E2E2E2E2E2E2E2E2E2E2E2E2E2E2E2F5E2E2E2E2E20F0FE2E20F0F0F0F0F0F0F0F0F0F0F0F0F0F0F0F0F0F0F0F0F0F0F0F575757575757576A9E57579E6A576A9E57579E6A576A9E57579E6A576A9E
310
57579E6A0F9E5757579E6A6A9E5757579E6A6A9E5757579E576A9E5757579E5757575757575757E2E2E2E2E2E2E2E2E2E2E2E2E2E2E2E2E2E2E2E2E2E20F0F0F0F0F0F0F0F0F0F0F0F0F0F0FE2E2E2E2F5F5F5F5F5F5E2E2E2E2E2E2E2E2E2F5F50FF5F5F5E2E2E2E2E2E2E2E2E2E2E2E2E2E2E2E2E2E2F5E2E2E2E2E2E2E2
310
E2E2E2E2E2E2E2E2E2E2E2E2E2E2E2E2E2E2E2E2E2E2E2E2E2E2E2E2E2E2E2E2E2E2E2E2E2E2E2E2E2E2E2E2E2E2E2E2E2E2E2E2E2E2E2E2E2E2E2E2E2E2E2E2E2F5E2E2E2E2E20FE2E2E20FE2E2E2E2E2E2E2E2E2E2E2E2E2E2E2E2E2E2E2E2E2E257E2E2E2E2E2E2E26A9EE2E29E6AE26A9EE2E29E6AE26A9EE2E29E6AE2
310
6A9EE2E29E6A0F9EE2E2E29E6A6A9EE2E2E29E6A6A9EE2E2E29EE26A9EE2E2E29EE2E2E2E2E2E2E257E2E2E2E2E2E2E2E2E2E2E2E2E2E2E2E2E2E2E2E2E2E20F0F0F0F0F0FE2E2E2E2E2E2E2E2E2E2E2E2E2E2F5E2F5E2E2E2E2E2E2E2E2E2E2E2E2E20FF5F5E2E2E2E2E2E2E2E2E2E2E2E2E2E2E2E2E2E2E2F5E2E2E2E2E2
310
E2E2E2E2E2E2E2E2E2E2E2E2E2E2E2E2E2E2E2E2E2E2E2E2E2E2E2E2E2E2E2E2E2E2E2E2E2E2E2E2E2E2E2E2E2E2E2E2E2E2E2E2E2E2E2E2E2E2E2E2E2E2E2E2E2E2E2F5E2E2E2E2E20FE2E2E20F0FE2E2E2E2E2E2E2E2E2E2E2E2E2E2E2E2E2E2E2E2E257E2E2E2E2E2E2E26A9EE2E29E6AE26A9EE2E29E6AE26A9EE2E29E
310
6AE26A9EE2E29E6A0F9EE2E2E29E6A6A9EE2E2E29E6A6A9EE2E2E29EE26A9EE2E2E29EE2E2E2E2E2E2E257E2E2E2E2E2E2E2E2E2E2E2E2E2E2E2E2E2E2E2E2E2E2E2E2E2E2E2E2E2E2E2E2E2E2E2E2E2E2E2E2E2E2E2F5F5F5E2E2E2E2E2E2E2E2E2E2E2F50FF5E2E2E2E2E2E2E2E2E2E2E2E2E2E2E2E2E2E2E2E2F5E2E2E2
310
E2E2E2E2E2E2E2E2E2E2E2E2E2E2E2E2E2E2E2E2E2E2E2E2E2E2E2E2E2E2E2E2E2E2E2E2E2E2E2E2E2E2E2E2E2E2E2E2E2E2E2E2E2E2E2E2E2E2E2E2E2E2E2E2E2E2E2E2E2F5E2E2E2E2E20FE2E2E20F0FE2E2E2E2E2E2E2E2E2E2E2E2E2E2E2E2E2E2E2E2E257E2E2E2E2E2E2E26A9EE2E29E6AE26A9EE2E29E6AE26A9EE2
310
E29E6AE26A9EE2E29E6A0F9EE2E2E29E6A6A9EE2E2E29E6A6A9EE2E2E29EE26A9EE2E2E29EE2E2E2E2E2E2E257E2E2E2E2E2E2E2E2E2E2E2E2E2E2E2E2E2E2E2E2E2E2E2E2E2E2E2E2E2E2E2E2E2E2E2E2E2E2E2E2E2E2E2E2F5F5F5F5F5E2E2E2E2E2F5F5F5E20FE2E2E2E2E2E2E2E2E2E2E2E2E2E2E2E2E2E2E2E2E2F5E2
310
E2E2E2E2E2E2E2E2E2E2E2E2E2E2E2E2E2E2E2E2E2E2E2E2E2E2E2E2E2E2E2E2E2E2E2E2E2E2E2E2E2E2E2E2E2E2E2E2E2E2E2E2E2E2E2E2E2E2E2E2E2E2E2E2E2E2E2E2E2E2E2F5E2E2E2E2E20FE2E2E20FE2E2E2E2E2E2E2E2E2E2E2E2E2E2E2E2E2E2E2E2E2E257E2E2E2E2E2E2E26A9EE2E29E6AE26A9EE2E29E6AE26A
310
9EE2E29E6AE26A9EE2E29E6AF59EE2E2E29E6A6A9EE2E2E29E6A6A9EE2E2E29EE26A9EE2E2E29EE2E2E2E2E2E2E257E2E2E2E2E2E2E2E2E2E2E2E2E2E2E2E2E2E2E2E2E2E2E2E2E2E2E2E2E2E2E2E2E2E2E2E2E2E2E2E2E2E2E2E2F5E2E2E2E2F5F5F5F5F5F5E2E2E20FE2E2E2E2E2E2E2E2E2E2E2E2E2E2E2E2E2E2E2E2E2
310
F5E2E2E2E2E2E2E2E2E2E2E2E2E2E2E2E2E2E2E2E2E2E2E2E2E2E2E2E2E2E2E2E2E2E2E2E2E2E2E2E2E2E2E2E2E2E2E2E2E2E2E2E2E2E2E2E2E2E2E2E2E2E2E2E2E2E2E2E2E2E2E2E2F5E2E2E2E2E20FE2E2E20FE2E2E2E2E2E2E2E2E2E2E2E2E2E2E2E2E2E2E2E2E2E257E2E2E2E2E2E2E26A9EE2E29E6AE26A9EE2E29E6A
310
E26A9EE2E29E6AE26A9EE29E9E6AF59E9EE29E9E6AE29E9EE29E9E6A6A9E9EE29E9EE26A9E9EE29E6AE2E2E2E2E2E2E257E2E2E2E2E2E2E2E2E2E2E2E2E2E2E2E2E2E2E20F0F0F0F0F0F0F0F0FE2E2E2E2E2E2E2E2E2E2E2E2E2E2E2E20FE2E2E2E2E2E2E2E2E2E2E2E2E20FE2E2E2E2E2E2E2E2E2E2E2E2E2E2E2E2E2E2E2
310
E2E2F5E2E2E2E2E2E2E2E2E2E2E2E2E2E2E2E2E2E2E2E2E2E2E2E2E2E2E2E2E2E2E2E2E2E2E2E2E2E2E2E2E2E2E2E2E2E2E2E2E2E2E2E2E2E2E2E2E2E2E2E2E2E2E2E2E2E2E2E2E2E2E2E2F5E2E2E2E2E20FE2E2E20FE2E2E2E2E2E2E2E2E2E2E2E2E2E2E2E2E2E2E2E2E2E257E2E2E2E2E2E2E26A9E9E9E9E6AE26A9E9E9E
310
6A6AE26A9E9E9E6AE2E26A9E9E9E6AE2F56A9E9E9E6AE2E26A9E9E9E6AE2E26A9E9E9E6AE2E26A9E9E9E6AE2E2E2E2E2E2E20F0FE2E2E2E2E2E2E2E2E2E2E2E2E2E2E2E2E2E20F0F0F0FE20F0F0FE2E2E2E2E2E2E2E2E2E2E2E2E2E2E2E2E20FE2E2E2E2E2E2E2E2E2E2E2E2E20FE2E2E2E2E2E2E2E2E2E2E2E2E2E2E2E2E2
310
E2E2E2E2F5E2E2E2E2E2E2E2E2E2E2E2E2E2E2E2E2E2E2E2E2E2E2E2E2E2E2E2E2E2E2E2E2E2E2E2E2E2E2E2E2E2E2E2E2E2E2E2E2E2E2E2E2E2E2E2E2E2E2E2E2E2E2E2E2E2E2E2E2E2E2E2E2F5E2E2E2E2E20FE2E2E20FE2E2E2E2E2E2E2E2E2E2E2E2E2E2E2E2E2E2E2E2E2E257E2E2E2E2E2E2E2E2E26A6AE2E2E2E2E2
310
6A6AE2E2E2E26A6A6AE2E2E2E26A6A6AE2E20FF56A6A6AE2E2E2E26A6A6AE2E2E2E26A6A6AE2E2E2E26A6A6AE2E2E2E2E2E2E2E257E20F0F0F0FE2E2E2E2E2E2E2E2E2E2E20F0F0F0F0F0F0F0F0F0F0F0FE2E2E2E2E2E2E2E2E2E2E2E2E2E2E2E20FE20FE2E2E20F0F0FE2E2E20FE20FE2E2E2E2E2E2E2E2E2E2E2E2E2E2E2
310
E2E2E2E2E2E2F5E2E2E2E2E2E2E2E2E2E2E2E2E2E2E2E2E2E2E2E2E2E2E2E2E2E2E2E2E2E2E2E2E2E2E2E2E2E2E2E2E2E2E2E2E2E2E2E2E2E2E2E2E2E2E2E2E2E2E2E2E2E2E2E2E2E2E2E2E2E2E2E2F5E2E2E2E2E20FE2E2E20FE2E2E2E2E2E2E2E2E2E2E2E2E2E2E2E2E2E2E26A6A6A6A6A6A6A6A6AE2E2E2E2E2E2E2E2E2
310
E2E2E2E2E2E2E2E2E2E2E2E2E2E2E2E2E2E2E2E20FE2E2F5F5F5E2E2F5F5F5E2E2E2E2E2E2E2E2E2E2E2E2E2E2E2E2E2E26A6A6A6A6A6A6A6A6A6AE20F0F0F0FE2E2E2E2E2E20F0F0F0F0FE20F0F0FE20F0FE2E2E2E2E2E2E2E2E2E2E2E2E2E2E2E2E20F0F0F0F0F0F0F0F0F0F0F0F0F0F0FE2E2E2E2E2E2E2E2E2E2E2E2E2
310
E2E2E2E2E2E2E2E2F5E2E2E2E2E2E2E2E2E2E2E2E2E2E2E2E2E2E2E2E2E2E2E2E2E2E2E2E2E2E2E2E2E2E2E2E2E2E2E2E2E2E2E2E2E2E2E2E2E2E2E2E2E2E2E2E2E2E2E2E2E2E2E2E2E2E2E2E2E2E2E2E2F5E2E2E2E2E20FE2E2E20FE2E2E2E2E2E2E2E2E2E2E2E2E2E2E2E2E2E2E29E9E9E9E9E9E9E9E9E6AE2E2E2E2E2E2
310
E2E2E2E2E2E2E2E2E2E2E2E2E2E2E2E2E2E2E2E2E2E20FE2E2E2E2F5F5F5E2E2E2E2E2E2E2E2E2E2E2E2E2E2E2E2E2E2E2E26A9E9E9E9E9E9E9E9E9E6AE2E2E2E2E20F0F0F0F0F0F0F0F0F0F0F0F0F0F0F0F0F0FE2E2E2E2E2E2E2E2E2E2E2E2E2E2E2E2E2E2E2E2E2E2E20F0F0FE2E2E2E2E2E2E2E2E2E2E2E2E2E2E2E2E2
310
E2E2E2E2E2E2E2E2E2E2F5E2E2E2E2E2E2E2E2E2E2E2E2E2E2E2E2E2E2E2E2E2E2E2E2E2E2E2E2E2E2E2E2E2E2E2E2E2E2E2E2E2E2E2E2E2E2E2E2E2E2E2E2E2E2E2E2E2E2E2E2E2E2E2E2E2E2E2E2E2E2E2E2F5E2E2E2E2E20FE2E2E20FE2E2E2E2E2E2E2E2E2E2E2E2E2E2E2E2E2E2E29EE2E257E2E2E2E29E9E6AE2E2E2
310
E2E2E2E2E2E2E2E2E2E2E2E2E2E2E2E2E2E2E2E2E2E2E2E20FE2E2E2E2E2E2E2E2E2E2E2E2E2E2E2E2E2E2E2E2E2E2E2E2E2E2E26A9EE2E2E2E257E2E29E6AE2E2E2E2E2E2E2E2E2E2E2E20F0F0F0F0F0F0F0F0F0F0F0FE2E2E2E2E2E2E2E2E2E2E2E2E2E2E2E2E2E2E2E2E2E2E2E2E2E2E2E2E2E2E2E2E2E2E2E2E2E2E2E2
310
E2E2E2E2E2E2E2E2E2E2E2E2F5E2E2E2E2E2E2E2E2E2E2E2E2E2E2E2E2E2E2E2E2E2E2E2E2E2E2E2E2E2E2E2E2E2E2E2E2E2E2E2E2E2E2E2E2E2E2E2E2E2E2E2E2E2E2E2E2E2E2E2E2E2E2E2E2E2E2E2E2E2E2E2E2F5E2E2E2E2E20FE2E2E20FE2E2E2E2E2E20F0F0F0F0F0F0F0F0F0F0F0F0F9E0F0F0F0F0F0F0F0F9E6AE2
310
E2E29E9E9E9E9E9E9E9E9E9E9E9E9E9E9E9E9E9E9E9E9E9E9E9E0F9E9E9E9E9E9E9E9E9E9E9E9E9E9E9E9E9E9E9E9E9E9E0F0F0F0F0F6A9E0F0F0F0F0F0F0F9E6A0F0F0F0F0F0F0F0F0F0F0F0F0F0F0F0F0F0F0F0F0F0F0F0F0F0F0F0F0F0F0F0F0F0F0F0F0F0F0F0F0F0F0F0F0F0F0F0F0F0F0F0FE2E2E2E2E2E2E2E2E2E2
310
E2E2E2E2E2E2E2E2E2E2E2E2E2E2F5E2E2E2E2E2E2E2E2E2E2E2E2E2E2E2E2E2E2E2E2E2E2E2E2E2E2E2E2E2E2E2E2E2E2E2E2E2E2E2E2E2E2E2E2E2E2E2E2E2E2E2E2E2E2E2E2E2E2E2E2E2E2E2E2E2E2E2E2E2E2E2E2F5E2E2E2E2E20FE2E2E20FE2E2E2E2E2E20FE2E2E2E2E2E2E2E2E2E2E2E29E9E9E9E9E9E9E9E9E6A
310
E2E2E2E29EE2E2E2E2E2E2E2E2E2E2E2E2E2E2E2E2E2E2E2E2E2E2E20FE2E2E2E2E2E2E2E2E2E2E2E2E2E2E2E2E2E2E2E2E2E29EE2E2E2E26A9E9E9E9E9E9E9E9E9E6AE2E2E2E2E2E2E2E2E2E2E2E2E2E2E2E2E2E2E2E2E2E2E2E2E2E2E2E2E2E2E2E2E2E2E2E2E2E2E2E2E2E2E2E2E2E2E2E2E2E2E20FE2E2E2E2E2E2E2E2
310
E2E2E2E2E2E2E2E2E2E2E2E2E2E2E2E2F5E2E2E2E2E2E2E2E2E2E2E2E2E2E2E2E2E2E2E2E2E2E2E2E2E2E2E2E2E2E2E2E2E2E2E2E2E2E2E2E2E2E2E2E2E2E2E2E2E2E2E2E2E2E2E2E2E2E2E2E2E2E2E2E2E2E2E2E2E2E2E2E2F5E2E2E2E2E20FE2E2E20FE2E2E2E2E20F0FE2E2E2E2E2E2E2E2E2E2E2E26A6A6A6A6A6A6A6A
310
6A6AE2E2E2E29EE26A6A6A6A6A6A6A6A6A6A6A6A6A6A6A6A6A6A6A6A6A6A0F6A6A6A6A6A6A6A6A6A6A6A6A6A6A6A6A6A6A6A6A6A0F0F0F0F0F0F0F6A6A6A6A6A6A6A6A6A6A0F0F0F0F0F0F0F0F0F0F0F0F0F0F0F0F0F0F0F0F0F0F0F0F0F0F0F0F0F0F0F0F0F0F0F0F0F0F0F0F0F0F0F0F0F0F0FE2E2E2E20F0FE2E2E2E2E2
310
E2E2E2E2E2E2E2E2E2E2E2E2E2E2E2E2E2E2F5E2E2E2E2E2E2E2E2E2E2E2E2E2E2E2E2E2E2E2E2E2E2E2E2E2E2E2E2E2E2E2E2E2E2E2E2E2E2E2E2E2E2E2E2E2E2E2E2E2E2E2E2E2E2E2E2E2E2E2E2E2E2E2E2E2E2E2E2E2E2E2E2F5E2E2E2E2E20FE2E2E20FE2E2E2E2E2E20FE2E2E2E2E2E2E2E2E2E2E2E2E2E2E257E2E2
310
E2E2E2E2E2E2E2E29EE26AE2E2E2E2E2E2E2E2E2E2E2E2E2E2E2E2E2E2E2E2E20FE2E2E2E2E2E2E2E2E2E2E2E2E2E2E2E2E2E2E2E2E26A9EE2E2E2E2E2E2E2E2E2E257E2E2E2E2E2E2E2E2E2E2E2E2E2E2E2E2E2E2E2E2E2E2E2E2E2E2E2E2E2E2E2E2E2E2E2E2E2E2E2E2E2E2E2E2E2E2E2E2E2E20FE2E2E2E20F0FE2E2E2
310
E2E2E2E2E2E2E2E2E2E2E2E2E2E2E2E2E2E2E2E2F5E2E2E2E2E2E2E2E2E2E2E2E2E2E2E2E2E2E2E2E2E2E2E2E2E2E2E2E2E2E2E2E2E2E2E2E2E2E2E2E2E2E2E2E2E2E2E2E2E2E2E2E2E2E2E2E2E2E2E2E2E2E2E2E2E2E2E2E2E2E2E2E2F5E2E2E2E2E20FE2E2E20FE2E2E2E2E2E20FE2E2E2E2E2E2E2E2E2E2E2E26A6A6A6A
310
6A6A6A6A6AE2E2E2E2E29EE26AE2E2E2E2E2E2E2E2E2E2E2E2E2E2E2E2E2E2E2E2E20FE2E2E2E2E2E2E2E2E2E2E2E2E2E2E2E2E20F0F0FE26A9EE2E2E2E2E26A6A6A6A6A6A6A6A6A6AE2E2E2E2E2E2E2E2E2E2E2E2E2E2E2E2E2E2E2E2E2E2E2E2E2E2E2E2E2E2E2E2E2E2E2E2E2E2E2E2E2E2E2E2E20F0FE2E2E2E20FE2E2
310
E2E2E2E2E2E2E2E2E2E2E2E2E2E2E2E2E2E2E2E2E2E2F5E2E2E2E2E2E2E2E2E2E2E2E2E2E2E2E2E2E2E2E2E2E2E2E2E2E2E2E2E2E2E2E2E2E2E2E2E2E2E2E2E2E2E2E2E2E2E2E2E2E2E2E2E2E2E2E2E2E2E2E2E2E2E2E2E2E2E2E2E2E2E2E2F5E2E2E2E2E20FE2E2E20FE2E2E2E2E2E20FE2E2E2E2E2E2E2E2E2E2E2E29E9E
310
9E9E9E9E9E9E9E6AE2E2E2E29EE26AE2E2E2E2E2E2E2E2E2E2E2E2E2E2E2E2E2E2E2E2E20FE2E2E2E2E2E2E2E2E2E2E2E2E2E2E2E2E2E2E2E20F0F0F0F0F0FE26A9E9E9E9E9E9E9E9E9E6AE2E2E2E2E2E2E2E2E2E2E2E2E2E2E2E2E2E2E2E2E2E2E2E2E2E2E2E2E2E2E2E2E2E2E2E2E2E2E2E2E2E2E2E2E2E20FE2E2E2E20F
310
E2E2E2E2E2E2E2E2E2E2E2E2E2E2E2E2E2E2E2E2E2E2E2E2F5E2E2E2E2E2E2E2E2E2E2E2E2E2E2E2E2E2E2E2E2E2E2E2E2E2E2E2E2E2E2E2E2E2E2E2E2E2E2E2E2E2E2E2E2E2E2E2E2E2E2E2E2E2E2E2E2E2E2E2E2E2E2E2E2E2E2E2E2E2E2E2E2F5E2E2E2E2E20FE2E2E20FE2E2E2E2E2E20F0F0F0F0FE2E2E2E2E2E2E2E2
310
9EE2E257E2E2E2E29E9E6AE2E2E29EE26AE2E2E2E2E2E2E2E2E2E2E2E2E2E2E2E2E2E2E2E2E20FE2E2E2E2E2E2E2E2E2E2E2E2E2E2E2E2E2E2E2E2E26A9EE2E2E20F6A9E0F0F0FE257E2E29E6AE2E2E2E2E2E2E2E2E2E2E2E2E2E2E2E2E2E2E2E2E2E2E2E2E2E2E2E2E2E2E2E2E2E2E2E2E2E2E2E2E2E2E2E2E2E20FE2E2E2
310
E20FE2E2E2E2E2E2E2E2E2E2E2E2E2E2E2E2E2E2E2E2E2E2E2E2F5E2E2E2E2E2E2E2E2E2E2E2E2E2E2E2E2E2E2E2E2E2E2E2E2E2E2E2E2E2E2E2E2E2E2E2E2E2E2E2E2E2E2E2E2E2E2E2E2E2E2E2E2E2E2E2E2E2E2E2E2E2E2E2E2E2E2E2E2E2E2E2E2F5E2E2E2E2E20FE2E2E20FE2E2E2E2E2E20FE20F0F0F0F0F0FE2E2E2
310
E2E29EE2E257E2E2E2E29E9E6AE2E2E29EE26AE2E2E2E2E2E2E2E2E2E2E2E2E2E2E2E2E2E2E2E2E20FE2E2E2E2E2E2E2E2E2E2E2E2E2E2E2E2E2E2E2E2E26A9EE2E2E2E26A9EE2E2E20F0F0F0F9E6AE2E2E2E2E2E2E2E20F0F0F0F0F0F0F0F0F0F0F0FE20FE20F0F0FE2E2E2E2E2E2E2E2E2E2E2E2E2E2E2E2E2E2E2E20FE2
310
E2E2E20FE2E2E2E2E2E2E2E2E2E2E2E2E2E2E2E2E2E2E2E2E2E2E2E2F5E2E2E2E2E2E2E2E2E2E2E2E2E2E2E2E2E2E2E2E2E2E2E2E2E2E2E2E2E2E2E2E2E2E2E2E2E2E2E2E2E2E2E2E2E2E2E2E2E2E2E2E2E2E2E2E2E2E2E2E2E2E2E2E2E2E2E2E2E2E2E2E2F5E2E2E2E2E20FE2E2E20FE2E2E2E2E2E20FE20F0F0FE2E20FE2
310
E2E2E2E29E9E9E9E9E9E9E9E9E6AE2E2E2E29EE26AE2E2E2E2E2E2E2E2E2E2E2E2E2E2E2E2E2E2E2E2E20FE2E2E2E2E2E2E2E2E2E2E2E2E2E2E2E2E2E2E2E2E26A9EE2E2E2E26A9E9E9E9E9E9E9E9E9E6A0F0F0F0F0F0F0F0F0F0F0F0F0F0F0F0F0F0F0F0FE20F0F0F0F0FE2E2E2E2E2E2E2E2E2E2E2E2E2E2E2E2E2E2E2E2
310
0FE2E2E2E20FE2E2E2E2E2E2E2E2E2E2E2E2E2E2E2E2E2E2E2E2E2E2E2E2F5E2E2E2E2E2E2E2E2E2E2E2E2E2E2E2E2E2E2E2E2E2E2E2E2E2E2E2E2E2E2E2E2E2E2E2E2E2E2E2E2E2E2E2E2E2E2E2E2E2E2E2E2E2E2E2E2E2E2E2E2E2E2E2E2E2E2E2E2E2E2E2E2F5E2E2E2E2E20FE2E2E20FE2E2E2E2E2E20FE2E2E2E2E20F
310
0FE2E2E2E2E26A6A6A6A6A6A6A6A6AE2E2E2E2E29EE26AE2E2E2E2E2E2E2E2E2E2E2E2E2E2E2E2E2E2E2E2E20FE2E2E2E2E2E2E2E2E2E2E2E2E2E2E2E2E2E2E2E2E26A9EE2E2E2E2E26A6A6A6A6A6A6A6A6A6AE2E2E2E2E2E2E2E20F0F0F0F0F0F0F0F0F0F0F0FE20F0F0F0FE2E2E2E2E2E2E2E2E2E2E2E2E2E2E2E2E2E2E2
310
E2E20FE2E2E2E20FE2E2E2E2E2E2E2E2E2E2E2E2E2E2E2E2E2E2E2E2E2E2E2E2F5E2E2E2E2E2E2E2E2E2E2E2E2E2E2E2E2E2E2E2E2E2E2E2E2E2E2E2E2E2E2E2E2E2E2E2E2E2E2E2E2E2E2E2E2E2E2E2E2E2E2E2E2E2E2E2E2E2E2E2E2E2E2E2E2E2E2E2E2E2E2E2E2F5E2E2E2E2E20FE2E2E20FE2E2E2E2E2E20FE2E2E2E2
310
E20F0FE2E2E2E2E2E2E2E257E2E2E2E2E2E2E2E2E2E29EE26AE2E2E2E2E2E2E2E2E2E2E2E2E2E2E2E2E2E2E2E2E20FE2E2E2E2E2E2E2E2E2E2E2E2E2E2E2E2E2E2E2E2E26A9EE2E2E2E2E2E2E2E2E2E257E2E2E2E2E2E2E2E2E2E2E2E2E2E2E2E2E2E2E2E2E2E2E2E2E2E2E2E2E2E2E2E2E2E2E2E2E2E2E2E2E2E2E2E2E2E2
310
E2E2E2E20FE2E2E2E20FE2E2E2E2E2E2E2E2E2E2E2E2E2E2E2E2E2E2E2E2E2E2E2E2F5E2E2E2E2E2E2E2E2E2E2E2E2E2E2E2E2E2E2E2E2E2E2E2E2E2E2E2E2E2E2E2E2E2E2E2E2E2E2E2E2E2E2E2E2E2E2E2E2E2E2E2E2E2E2E2E2E2E2E2E2E2E2E2E2E2E2E2E2E2E2E2E2F5E2E2E2E2E20FE2E2E20FE2E2E2E2E2E20FE2E2
310
E2E2E2E20FE2E2E2E2E26A6A6A6A6A6A6A6A6A6AE2E2E2E29EE26AE2E2E2E2E2E2E2E2E2E2E2E2E2E2E2E2E2E2E2E2E20FE2E2E2E2E2E2E2E2E2E2E2E2E2E2E2E2E2E2E2E2E26A9EE2E2E2E2E26A6A6A6A6A6A6A6A6A6AE2E2E2E2E2E2E2E2E2E2E2E2E2E2E2E2E2E2E2E2E2E2E2E2E2E2E2E2E2E2E2E2E2E2E2E2E2E2E2E2
310
E2E2E2E2E2E20FE2E2E2E20FE2E2E2E2E2E2E2E2E2E2E2E2E2E2E2E2E2E2E2E2E2E2E2E2F5E2E2E2E2E2E2E2E2E2E2E2E2E2E2E2E2E2E2E2E2E2E2E2E2E2E2E2E2E2E2E2E2E2E2E2E2E2E2E2E2E2E2E2E2E2E2E2E2E2E2E2E2E2E2E2E2E2E2E2E2E2E2E2E2E2E2E2E2E2E2E2E2F5E2E2E2E2E20FE2E2E20FE2E2E2E2E2E20F
310
E2E2E2E2E2E20F0F0F0F0F0F9E9E9E9E9E9E9E9E9E6AE2E2E2E29EE26AE2E2E2E2E2E2E2E2E2E2E2E2E2E2E2E2E2E2E2E2E20FE2E2E2E2E2E2E2E2E2E2E2E2E2E2E2E2E2E2E2E2E26A9EE2E2E2E26A9E9E9E9E9E9E9E9E9E6AE2E2E2E2E2E20F0F0F0F0F0F0F0FE20F0F0F0F0F0FE20F0FE20F0F0F0F0F0FE2E2E2E2E2E2E2
310
E2E2E2E2E2E2E2E20FE2E2E2E20FE2E2E2E2E2E2E2E2E2E2E2E2E2E2E2E2E2E2E2E2E2E2E2E2F5E2E2E2E2E2E2E2E2E2E2E2E2E2E2E2E2E2E2E2E2E2E2E2E2E2E2E2E2E2E2E2E2E2E2E2E2E2E2E2E2E2E2E2E2E2E2E2E2E2E2E2E2E2E2E2E2E2E2E2E2E2E2E2E2E2E2E2E2E2E2E2E2F5E2E2E2E2E20FE2E2E20FE2E2E2E2E2
310
E20FE2E2E2E2E2E2E2E2E2E2E2E29EE2E257E2E2E2E2E29E6AE2E2E29EE26AE2E2E2E2E2E2E2E2E2E2E2E2E2E2E2E2E2E2E2E2E20FE2E2E2E2E2E2E2E2E2E2E2E2E2E2E2E2E2E2E2E2E26A9EE2E2E2E26A9EE2E2E2E257E2E29E6A0F0F0F0F0F0F0F0F0F0F0F0F0F0FE20F0F0F0F0FE2E20F0F0F0F0F0F0F0F0FE2E2E2E2E2
310
E2E2E2E2E2E2E2E2E2E20FE2E2E2E20FE2E2E2E2E2E2E2E2E2E2E2E2E2E2E2E2E2E2E2E2E2E2E2E2F5E2E2E2E2E2E2E2E2E2E2E2E2E2E2E2E2E2E2E2E2E2E2E2E2E2E2E2E2E2E2E2E2E2E2E2E2E2E2E2E2E2E2E2E2E2E2E2E2E2E2E2E2E2E2E2E2E2E2E2E2E2E2E2E2E2E2E2E2E2E2E2E2F5E2E2E2E2E20FE2E2E20FE2E2E2
310
E2E2E20FE2E2E2E2E2E2E2E2E2E2E2E29EE2E257E2E2E2E29E9E6AE2E2E29EE26AE2E2E2E2E2E2E2E2E2E2E2E2E2E2E2E2E2E2E2E2E20FE2E2E2E2E2E2E2E2E2E2E2E2E2E2E2E2E2E2E2E2E26A9EE2E2E2E26A9EE2E2E2E257E20F9E6AE2E2E2E2E2E20F0F0F0F0F0F0F0FE20F0F0F0F0F0FE20F0F0F0F0F0F0F0F0FE2E2E2
310
E2E2E2E2E2E2E2E2E2E2E2E20FE2E2E2E20FE2E2E2E2E2E2E2E2E2E2E2E2E2E2E2E2E2E2E2E2E2E2E2E2F5E2E2E2E2E2E2E2E2E2E2E2E2E2E2E2E2E2E2E2E2E2E2E2E2E2E2E2E2E2E2E2E2E2E2E2E2E2E2E2E2E2E2E2E2E2E2E2E2E2E2E2E2E2E2E2E2E2E2E2E2E2E2E2E2E2E2E2E2E2E2E2E2F5E2E2E2E2E20FE2E2E20FE2
310
E2E2E2E2E20FE2E2E2E2E2E20F0F0F0F0F0F9E9E9E9E9E9E9E9E9E6AE2E2E2E29EE26AE2E2E2E2E2E2E2E2E2E2E2E2E2E2E2E2E2E2E2E2E20FE2E2E2E2E2E2E2E2E2E2E2E2E2E2E2E2E2E2E2E2E26A9EE2E2E2E26A9E9E9E9E9E9E9E9E9E6AE2E2E2E2E2E2E2E2E2E2E2E2E2E2E2E2E2E2E2E2E2E2E2E2E2E2E2E2E2E2E2E2
310
E2E2E2E2E2E2E2E2E2E2E2E2E2E20FE2E2E2E20FE2E2E2E2E2E2E2E2E2E2E2E2E2E2E2E2E2E2E2E2E2E2E2E2F5E2E2E2E2E2E2E2E2E2E2E2E2E2E2E2E2E2E2E2E2E2E2E2E2E2E2E2E2E2E2E2E2E2E2E2E2E2E2E2E2E2E2E2E2E2E2E2E2E2E2E2E2E2E2E2E2E2E2E2E2E2E2E2E2E2E2E2E2E2E2E2E2F5E2E2E2E2E20FE2E2E2
310
0FE2E2E2E2E2E20FE2E2E2E2E2E20FE2E2E2E2E26A6A6A6A6A6A6A6A6AE2E2E2E2E29EE26AE2E2E2E2E2E2E2E2E2E2E2E2E2E2E2E2E2E2E2E2E20FE2E2E2E2E2E2E2E2E2E2E2E2E2E2E2E2E2E2E2E2E26A9EE2E2E2E2E26A6A6A6A6A6A6A6A6A6AE2E2E2E2E2E2E2E2E2E2E2E2E2E2E2E2E2E2E2E2E2E2E2E2E2E2E2E2E2E2
310
E2E2E2E2E2E2E2E2E2E2E2E2E2E2E2E20FE2E2E2E20FE2E2E2E2E2E2E2E2E2E2E2E2E2E2E2E2E2E2E2E2E2E2E2E2F5E2E2E2E2E2E2E2E2E2E2E2E2E2E2E2E2E2E2E2E2E2E2E2E2E2E2E2E2E2E2E2E2E2E2E2E2E2E2E2E2E2E2E2E2E2E2E2E2E2E2E2E2E2E2E2E2E2E2E2E2E2E2E2E2E2E2E2E2E2E2E2E2F5E2E2E2E2E20FE2
310
E2E20FE2E2E2E2E2E20FE2E2E2E2E20F0FE2E2E2E2E2E2E2E257E2E2E2E2E2E2E2E2E2E29EE26AE2E2E2E2E2E2E2E2E2E2E2E2E2E2E2E2E2E2E2E2E20FE2E2E2E2E2E2E2E2E2E2E2E2E2E2E2E2E2E2E2E2E26A9EE2E2E20F0F0FE2E2E2E257E2E2E2E2E2E2E2E2E2E2E2E2E2E2E2E2E2E2E2E2E2E2E2E2E2E2E2E2E2E2E2E2
310
E2E2E2E2E2E2E2E2E2E2E2E2E2E2E2E2E2E20FE2E2E2E20FE2E2E2E2E2E2E2E2E2E2E2E2E2E2E2E2E2E2E2E2E2E2E2E2F5E2E2E2E2E2E2E2E2E2E2E2E2E2E2E2E2E2E2E2E2E2E2E2E2E2E2E2E2E2E2E2E2E2E2E2E2E2E2E2E2E2E2E2E2E2E2E2E2E2E2E2E2E2E2E2E2E2E2E2E2E2E2E2E2E2E2E2E2E2E2E2E2F5E2E2E2E2E2
310
0FE2E2E20FE2E2E2E2E2E20FE2E2E2E2E2E20FE2E2E2E2E29E9E9E9E9E9E9E9E6A6AE2E2E2E29EE26AE2E2E2E2E2E2E2E2E2E2E2E2E2E2E2E2E2E2E2E2E20FE2E2E2E2E2E2E2E2E2E2E2E2E2E2E2E2E2E2E2E2E26A9E0F0F0FE2E26A9E9E9E9E9E9E9E9E6AE2E2E2E2E2E2E2E2E2E2E2E2E2E2E2E2E2E2E2E2E2E2E2E2E2E2
310
E2E2E2E2E2E2E2E2E2E2E2E2E2E2E2E2E2E2E2E20FE2E2E2E20FE2E2E2E2E2E2E2E2E2E2E2E2E2E2E2E2E2E2E2E2E2E2E2E2F5E2E2E2E2E2E2E2E2E2E2E2E2E2E2E2E2E2E2E2E2E2E2E2E2E2E2E2E2E2E2E2E2E2E2E2E2E2E2E2E2E2E2E2E2E2E2E2E2E2E2E2E2E2E2E2E2E2E2E2E2E2E2E2E2E2E2E2E2E2E2E2E2F5E2E2E2
310
E2E20FE2E2E20FE2E2E2E2E2E20FE2E2E2E2E2E20FE2E2E2E2E29EE2E257E2E2E29E9E6AE2E2E2E29EE26AE2E2E2E2E2E2E2E2E2E2E2E2E2E2E2E2E2E2E2E2E20FE2E2E2E2E2E2E2E2E2E2E2E2E2E2E2E2E2E2E2E2E20F0FE2E2E2E26A9E9EE2E2E257E2E29E6AE2E2E2E2E2E2E2E2E2E2E2E2E2E2E2E2E2E2E2E2E2E2E2E2
310
E2E2E2E2E2E2E2E2E2E2E2E2E2E2E2E2E2E2E2E2E2E20FE2E2E2E20FE2E2E2E2E2E2E2E2E2E2E2E2E2E2E2E2E2E2E2E2E2E2E2E2F5E2E2E2E2E2E2E2E2E2E2E2E2E2E2E2E2E2E2E2E2E2E2E2E2E2E2E2E2E2E2E2E2E2E2E2E2E2E2E2E2E2E2E2E2E2E2E2E2E2E2E2E2E2E2E2E2E2E2E2E2E2E2E2E2E2E2E2E2E2E2E2E2F5E2
310
E2E2E2E20FE2E2E20FE2E2E2E2E2E20FE2E2E2E2E2E2E2E2E2E2E2E29EE2E257E2E2E2E2E29E6AE2E2E29EE26AE2E2E2E2E2E2E2E2E2E2E2E2E2E2E2E2E2E2E2E2E20FE2E2E2E2E2E2E2E2E2E2E2E2E2E2E2E2E2E2E2E2E26A9EE2E2E2E26A9EE2E2E2E257E2E29E6AE2E2E2E2E2E2E2E2E2E2E2E2E2E2E2E2E2E2E2E2E2E2
310
E2E2E2E2E2E2E2E2E2E2E2E2E2E2E2E2E2E2E2E2E2E2E2E20FE2E2E2E20FE2E2E2E2E2E2E2E2E2E2E2E2E2E2E2E2E2E2E2E2E2E2E2E2F5E2E2E2E2E2E2E2E2E2E2E2E2E2E2E2E2E2E2E2E2E2E2E2E2E2E2E2E2E2E2E2E2E2E2E2E2E2E2E2E2E2E2E2E2E2E2E2E2E2E2E2E2E2E2E2E2E2E2E2E2E2E2E2E2E2E2E2E2E2E2E2E2
310
F5E2E2E2E2E20FE2E2E20FE2E2E2E2E2E20FE2E2E2E2E2E2E2E2E2E2E2E29EE2E257E2E2E2E29E9EE2E2E2E29EE26AE2E2E2E2E2E2E2E2E2E2E2E2E2E2E2E2E2E2E2E2E20FE2E2E2E2E2E2E2E2E2E2E2E2E2E2E2E2E2E2E2E2E26A9EE2E2E2E26A9EE2E2E2E257E2E29E6AE2E2E2E2E2E2E2E2E2E2E2E20F0F0F0FE20F0F0F
310
0F0F0FE20F0F0F0FE2E2E2E2E2E2E2E2E2E2E2E2E2E2E2E2E2E20FE2E2E20F0F0FE2E2E2E2E2E2E2E2E2E2E2E2E2E2E2E2E2E2E2E2E2E2E2F5E2E2E2E2E2E2E2E2E2E2E2E2E2E2E2E2E2E2E2E2E2E2E2E2E2E2E2E2E2E2E2E2E2E2E2E2E2E2E2E2E2E2E2E2E2E2E2E2E2E2E2E2E2E2E2E2E2E2E2E2E2E2E2E2E2E2E2E2E2E2
310
E2E2F5E2E2E2E2E20FE2E2E20FE2E2E2E2E2E20FE2E2E2E2E2E2E2E2E2E2E2E29E9E9E9E9E9E9E9E9E6AE2E2E2E29EE26AE2E2E2E2E2E2E2E2E2E2E2E2E2E2E2E2E2E2E2E2E20FE2E2E2E2E2E2E2E2E2E2E2E2E2E2E2E2E2E2E2E2E26A9EE2E2E2E26A9E9E9E9E9E9E9E9E9E6AE2E2E2E2E2E2E2E2E2E2E20F0F0F0F0FE20F
310
0F0F0F0FE2E20F0F0F0FE2E2E2E2E2E2E2E2E2E2E2E2E2E2E2E2E2E20FE2E2E20F0F0FE2E2E2E2E2E2E2E2E2E2E2E2E2E2E2E2E2E2E2E2E2E2E2F5E2E2E2E2E2E2E2E2E2E2E2E2E2E2E2E2E2E2E2E2E2E2E2E2E2E2E2E2E2E2E2E2E2E2E2E2E2E2E2E2E2E2E2E2E2E2E2E2E2E2E2E2E2E2E2E2E2E2E2E2E2E2E2E2E2E2E2E2
310
E2E2E2E2F5E2E2E2E20F0F0FE2E20FE2E2E2E20F0F0F0FE2E2E2E2E2E2E2E2E2E2E26A6A6A6A6A6A6A6A6AE2E2E2E2E29EE26AE2E2E2E2E2E2E2E2E2E2E2E2E2E2E2E2E2E2E2E2E20FE2E2E2E2E2E2E2E2E2E2E2E2E2E2E2E2E2E2E2E2E26A9EE2E2E2E2E2E26A6A6A6A6A6A6A6A6AE2E2E2E2E2E2E2E2E2E2E20F0F0F0F0F
310
E20F0F0F0F0F0F0F0F0F0F0FE2E2E2E2E2E2E2E2E2E2E2E2E2E2E2E2E2E20FE2E2E20F0F0FE2E2E2E2E2E2E2E2E2E2E2E2E2E2E2E2E2E2E2E2E2E2E2F5E2E2E2E2E2E2E2E2E2E2E2E2E2E2E2E2E2E2E2E2E2E2E2E2E2E2E2E2E2E2E2E2E2E2E2E2E2E2E2E2E2E2E2E2E2E2E2E2E2E2E2E2E2E2E2E2E2E2E2E2E2E2E2E2E2E2
310
E2E2E2E2E2E2F5E2E2E2E20F0F0FE2E20FE2E2E2E20F0F0F0FE2E2E2E2E2E2E2E2E20F0F6A6A6A6A6A6A6A6A0F0F0F0F0F0F0F0F0F0F0F0F0F0F0F0F0F0F0F0F0F0F0F0F0F0F0F0F0F0F0F0F0F0F0F0F0F0F0F0F0F0F0F0F0F0F0F0F0F0F0F0F0F0F0F0F0F0F0F0F6A6A6A6A6A6A6A6A6A0F0FE2E2E2E2E2E20F0F0F0F0F0F
310
0F0F0F0F0F0F0F0F0F0F0F0F0F0FE2E2E2E2E2E2E2E2E2E2E2E2E2E2E2E2E2E20FE2E2E2E20FE2E2E2E2E2E2E2E2E2E2E2E2E2E2E2E2E2E2E2E2E2E2E2E2F5E2E2E2E2E2E2E2E2E2E2E2E2E2E2E2E2E2E2E2E2E2E2E2E2E2E2E2E2E2E2E2E2E2E2E2E2E2E2E2E2E2E2E2E2E2E2E2E2E2E2E2E2E2E2E2E2E2E2E2E2E2E2E2E2
310
E2E2E2E2E2E2E2E2F5E2E2E2E20F0F0FE2E20FE2E2E2E20FE20F0FE2E2E2E2E2E2E2E2E2E2E29E9E9E9E9E9E9E9E9E6AE2E2E2E29EE26AE2E2E2E2E2E2E2E2E2E2E2E2E2E2E2E2E2E2E2E2E20FE2E2E2E2E2E2E2E2E2E2E2E2E2E2E2E2E2E2E2E2E26A0F0F0F0FE26A6A9E9E9E9E9E9E9E9E6AE2E2E2E2E2E2E2E2E20F0FE2
310
0F0F0F0F0F0F0F0F0F0F0F0F0F0F0FE2E2E2E2E2E2E2E2E2E2E2E2E2E2E2E2E2E2E20FE2E2E2E20FE2E2E2E2E2E2E2E2E2E2E2E2E2E2E2E2E2E2E2E2E2E2E2E2F5E2E2E2E2E2E2E2E2E2E2E2E2E2E2E2E2E2E2E2E2E2E2E2E2E2E2E2E2E2E2E2E2E2E2E2E2E2E2E2E2E2E2E2E2E2E2E2E2E2E2E2E2E2E2E2E2E2E2E2E2E2E2
310
E2E2E2E2E2E2E2E2E2E2F5E2E2E2E2E20FE2E2E20FE2E2E2E2E2E20FE2E2E2E2E2E2E2E2E2E2E2E29EE2E257E2E2E2E29E9EE2E2E2E29EE26AE2E2E2E2E2E2E2E2E2E2E2E2E2E2E2E2E2E2E2E2E20FE2E2E2E2E2E2E2E2E2E2E2E2E2E2E2E2E2E2E2E2E26A9EE2E2E20F6A9E9E0F0FE257E2E29E6AE2E2E2E2E2E2E2E20F0F
310
0F0F0F0F0F0F0F0F0F0F0F0F0F0F0F0F0FE2E2E2E2E2E2E2E2E2E2E2E2E2E2E2E2E2E2E20FE2E2E2E20FE2E2E2E2E2E2E2E2E2E2E2E2E2E2E2E2E2E2E2E2E2E2E2E2F5E2E2E2E2E2E2E2E2E2E2E2E2E2E2E2E2E2E2E2E2E2E2E2E2E2E2E2E2E2E2E2E2E2E2E2E2E2E2E2E2E2E2E2E2E2E2E2E2E2E2E2E2E2E2E2E2E2E2E2E2
310
E2E2E2E2E2E2E2E2E2E2E2E2F5E2E2E2E2E20FE2E2E20F0FE2E2E2E2E20FE2E2E2E2E2E2E2E2E2E2E2E29EE2E257E2E2E2E2E29E6AE2E2E29EE26AE2E2E2E2E2E2E2E2E2E2E2E2E2E2E2E2E2E2E2E2E20FE2E2E2E2E2E2E2E2E2E2E2E2E2E2E2E2E2E2E2E2E26A9EE2E2E2E26A9EE2E2E20F0F0F0F9E6AE2E2E2E2E2E2E2E2
310
0F0F0F0F0FE20F0F0F0F0F0F0F0F0FE20F0F0F0FE2E2E2E2E2E2E2E2E2E2E2E2E2E2E2E20F0F0F0FE2E2E20FE2E2E2E2E2E2E2E2E2E2E2E2E2E2E2E2E2E2E2E2E2E2E2E2F5E2E2E2E2E2E2E2E2E2E2E2E2E2E2E2E2E2E2E2E2E2E2E2E2E2E2E2E2E2E2E2E2E2E2E2E2E2E2E2E2E2E2E2E2E2E2E2E2E2E2E2E2E2E2E2E2E2E2
310
E2E2E2E2E2E2E2E2E2E2E2E2E2E2F5E2E2E2E2E20FE2E2E20F0FE2E2E2E2E20FE2E2E2E2E2E2E2E2E2E2E2E29EE2E257E2E2E2E29E9EE2E2E2E29EE26AE2E2E2E2E2E2E2E2E2E2E2E2E2E2E2E2E2E2E2E2E20FE2E2E2E2E2E2E2E2E2E2E2E2E2E2E2E2E2E2E2E2E26A9EE2E2E2E26A9E9EE2E2E257E2E29E6A0F0F0F0F0F0F
310
0F0F0F0FE20F0FE20F0F0F0F0F0F0F0FE2E20F0F0F0FE2E2E2E2E2E2E2E2E2E2E2E2E2E2E2E2E20F0F0FE2E2E20FE2E2E2E2E2E2E2E2E2E2E2E2E2E2E2E2E2E2E2E2E2E2E2E2F5E2E2E2E2E2E2E2E2E2E2E2E2E2E2E2E2E2E2E2E2E2E2E2E2E2E2E2E2E2E2E2E2E2E2E2E2E2E2E2E2E2E2E2E2E2E2E2E2E2E2E2E2E2E2E2E2
310
E2E2E2E2E2E2E2E2E2E2E2E2E2E2E2E2F5E2E2E2E2E20FE2E2E20F0FE2E2E2E2E20FE2E2E2E2E2E2E2E2E2E2E2E29E9E9E9E9E9E9E9E9E6AE2E2E2E29EE26AE2E2E2E2E2E2E2E2E2E2E2E2E2E2E2E2E2E2E2E2E20FE2E2E2E2E2E2E2E2E2E2E2E2E2E2E2E2E2E2E2E2E26A9EE2E2E2E26A6A9E9E9E9E9E9E9E9E6AE2E2E2E2
310
E2E2E2E20F0F0F0F0F0F0F0F0F0F0F0F0F0FE2E20F0F0F0FE2E2E2E2E2E2E2E2E2E2E2E2E2E2E2E20F0F0F0FE2E2E20FE2E2E2E2E2E2E2E2E2E2E2E2E2E2E2E2E2E2E2E2E2E2E2E2F5E2E2E2E2E2E2E2E2E2E2E2E2E2E2E2E2E2E2E2E2E2E2E2E2E2E2E2E2E2E2E2E2E2E2E2E2E2E2E2E2E2E2E2E2E2E2E2E2E2E2E2E2E2E2
310
E2E2E2E2E2E2E2E2E2E2E2E2E2E2E2E2E2E2F5E2E2E2E2E20FE2E2E20FE2E2E2E2E2E20FE2E2E2E2E2E2E2E2E2E2E2E26A6A6A6A6A6A6A6AE2E2E2E2E2E29EE26AE2E2E2E2E2E2E2E2E2E2E2E2E2E2E2E2E2E2E2E2E20FE2E2E2E2E2E2E2E2E2E2E2E2E2E2E2E2E2E2E2E2E26A9EE2E2E2E2E2E26A6A6A6A6A6A6A6A6AE2E2
310
E2E2E2E2E2E2E2E2E2E2E2E2E2E2E2E2E2E2E2E2E2E2E2E2E2E2E2E2E2E2E2E2E2E2E2E2E2E2E2E2E2E2E2E20FE2E2E2E20FE2E2E2E2E2E2E2E2E2E2E2E2E2E2E2E2E2E2E2E2E2E2E2E2F5E2E2E2E2E2E2E2E2E2E2E2E2E2E2E2E2E2E2E2E2E2E2E2E2E2E2E2E2E2E2E2E2E2E2E2E2E2E2E2E2E2E2E2E2E2E2E2E2E2E2E2E2
310
E2E2E2E2E2E2E2E2E2E2E2E2E2E2E2E2E2E2E2E2F5E2E2E2E2E20FE2E2E20FE2E2E2E2E2E20FE2E2E2E2E2E2E2E2E2E2E2E26A6A6A6A6A6A6A6A6AE2E2E2E2E29EE26AE2E2E2E2E2E2E2E2E2E2E2E2E2E2E2E2E2E2E2E2E20FE2E2E2E2E2E2E2E2E2E2E2E2E2E2E2E2E2E2E2E2E26A9EE2E2E2E2E2E26A6A6A6A6A6A6A6A6A
310
E2E2E2E2E2E2E2E2E2E2E2E2E2E2E2E2E2E2E2E2E2E2E2E2E2E2E2E2E2E2E2E2E2E2E2E2E2E2E2E2E2E2E2E2E2E20FE2E2E2E20FE2E2E2E2E2E2E2E2E2E2E2E2E2E2E2E2E2E2E2E2E2E2E2E2F5E2E2E2E2E2E2E2E2E2E2E2E2E2E2E2E2E2E2E2E2E2E2E2E2E2E2E2E2E2E2E2E2E2E2E2E2E2E2E2E2E2E2E2E2E2E2E2E2E2E2
310
E2E2E2E2E2E2E2E2E2E2E2E2E2E2E2E2E2E2E2E2E2E2F5E2E2E2E2E20FE2E2E20FE2E2E2E2E2E20FE2E2E2E2E2E2E2E2E2E2E2E29E9E9E9E9E9E9E9E9E6AE2E2E2E29EE26AE2E2E2E2E2E2E2E2E2E2E2E2E2E2E2E2E2E2E2E2E20FE2E2E2E2E2E2E2E2E2E2E2E2E2E2E2E2E2E2E2E2E26A9EE2E2E2E26A9E9E9E9E9E9E9E9E
310
9E6AE2E2E2E2E2E2E2E2E20F0F0F0F0F0F0F0F0F0F0F0FE20FE20F0F0FE2E2E2E2E2E2E2E2E2E2E2E2E2E2E2E2E2E2E20FE2E2E2E20FE2E2E2E2E2E2E2E2E2E2E2E2E2E2E2E2E2E2E2E2E2E2E2E2F5E2E2E2E2E2E2E2E2E2E2E2E2E2E2E2E2E2E2E2E2E2E2E2E2E2E2E2E2E2E2E2E2E2E2E2E2E2E2E2E2E2E2E2E2E2E2E2E2
310
E2E2E2E2E2E2E2E2E2E2E2E2E2E2E2E2E2E2E2E2E2E2E2E2F5E2E2E2E2E20FE2E2E20FE2E2E2E2E2E20FE2E2E2E2E2E2E2E2E2E2E2E29EE2E257E2E2E2E29E9EE2E2E2E29EE26AE2E2E2E2E2E2E2E2E2E2E2E2E2E2E2E2E2E2E2E2E20FE2E2E2E2E2E2E2E2E2E2E2E2E2E2E2E2E2E2E2E2E26A9EE2E2E2E26A9EE2E2E2E257
310
E2E29E6AE20F0F0F0F0F0F0F0F0F0F0F0F0F0F0F0F0F0F0F0FE20F0F0F0F0FE2E2E2E2E2E2E2E2E2E2E2E2E2E2E2E2E2E2E20FE2E2E2E20FE2E2E2E2E2E2E2E2E2E2E2E2E2E2E2E2E2E2E2E2E2E2E2E2F5E2E2E2E2E2E2E2E2E2E2E2E2E2E2E2E2E2E2E2E2E2E2E2E2E2E2E2E2E2E2E2E2E2E2E2E2E2E2E2E2E2E2E2E2E2E2
310
E2E2E2E2E2E2E2E2E2E2E2E2E2E2E2E2E2E2E2E2E2E2E2E2E2E2F5E2E2E2E2E20FE2E2E20FE2E2E2E2E2E20FE2E2E2E2E2E2E2E2E2E2E2E29EE2E257E2E2E2E2E29E6AE2E2E29EE26AE2E2E2E2E2E2E2E2E2E2E2E2E2E2E2E2E2E2E2E2E20FE2E2E2E2E2E2E2E2E2E2E2E2E2E2E2E2E2E2E2E2E26A9EE2E2E2E26A9EE2E2E2
310
E257E20F9E6A0FE2E2E2E2E2E2E2E20F0F0F0F0F0F0F0F0F0F0F0F0F0F0F0F0F0FE2E2E2E2E2E2E2E2E2E2E2E2E2E2E2E2E2E2E20FE2E2E2E20FE2E2E2E2E2E2E2E2E2E2E2E2E2E2E2E2E2E2E2E2E2E2E2E2F5E2E2E2E2E2E2E2E2E2E2E2E2E2E2E2E2E2E2E2E2E2E2E2E2E2E2E2E2E2E2E2E2E2E2E2E2E2E2E2E2E2E2E2E2
310
E2E2E2E2E2E2E2E2E2E2E2E2E2E2E2E2E2E2E2E2E2E2E2E2E2E2E2E2F5E2E2E2E2E20FE2E2E20FE2E2E2E2E2E20FE2E2E2E2E2E2E2E2E2E2E2E29EE2E257E2E2E29E9E6AE2E2E2E29EE26AE2E2E2E2E2E2E2E2E2E2E2E2E2E2E2E2E2E2E2E2E20FE2E2E2E2E2E2E2E2E2E2E2E2E2E2E2E2E2E2E2E2E26A9EE2E2E2E26A9E9E
310
E2E2E257E2E29E6A0FE2E2E2E2E2E2E2E2E2E2E2E2E2E2E2E2E2E2E2E2E2E2E2E2E2E2E2E2E2E2E2E2E2E2E2E2E2E2E2E2E2E2E2E2E20FE2E2E2E20FE2E2E2E2E2E2E2E2E2E2E2E2E2E2E2E2E2E2E2E2E2E2E2E2F5E2E2E2E2E2E2E2E2E2E2E2E2E2E2E2E2E2E2E2E2E2E2E2E2E2E2E2E2E2E2E2E2E2E2E2E2E2E2E2E2E2E2
310
E2E2E2E2E2E2E2E2E2E2E2E2E2E2E2E2E2E2E2E2E2E2E2E2E2E2E2E2E2E2F5E2E2E2E2E20FE2E2E20FE2E2E2E2E2E20FE2E2E2E2E20FE2E2E2E2E2E29E9E9E9E9E9E9E9E6A6AE2E2E2E29EE26AE2E2E2E2E2E2E2E2E2E2E2E2E2E2E2E2E2E2E2E2E20FE2E2E2E2E2E2E2E2E2E2E2E2E2E2E2E2E2E2E2E2E26A9EE2E2E2E2E2
310
6A9E9E9E9E9E9E9E9E6A0F0F0FE2E2E2E2E2E2E2E2E2E2E2E2E2E2E2E2E2E2E2E2E2E2E2E2E2E2E2E2E2E2E2E2E2E2E2E2E2E2E2E2E2E2E20FE2E2E2E20FE2E2E2E2E2E2E2E2E2E2E2E2E2E2E2E2E2E2E2E2E2E2E2E2F5E2E2E2E2E2E2E2E2E2E2E2E2E2E2E2E2E2E2E2E2E2E2E2E2E2E2E2E2E2E2E2E2E2E2E2E2E2E2E2E2
310
E2E2E2E2E2E2E2E2E2E2E2E2E2E2E2E2E2E2E2E2E2E2E2E2E2E2E2E2E2E2E2E2F5E2E2E2E2E20FE2E2E20FE2E2E2E2E2E20FE2E2E2E2E20FE2E2E2E2E2E2E2E2E257E2E2E2E2E2E2E2E2E2E29EE26AE2E2E2E2E2E2E2E2E2E2E2E2E2E2E2E2E2E2E2E2E20FE2E2E2E2E2E2E2E2E2E2E2E2E2E2E2E2E2E2E2E2E26A9EE2E2E2
310
E2E2E2E2E2E2E257E2E2E20FE2E2E20F0FE2E2E2E2E2E2E2E2E2E2E2E2E2E2E2E2E2E2E2E2E2E2E2E2E2E2E2E2E2E2E2E2E2E2E2E2E2E2E2E2E20FE2E2E2E20FE2E2E2E2E2E2E2E2E2E2E2E2E2E2E2E2E2E2E2E2E2E2E2E2F5E2E2E2E2E2E2E2E2E2E2E2E2E2E2E2E2E2E2E2E2E2E2E2E2E2E2E2E2E2E2E2E2E2E2E2E2E2E2
310
E2E2E2E2E2E2E2E2E2E2E2E2E2E2E2E2E2E2E2E2E2E2E2E2E2E2E2E2E2E2E2E2E2E2F5E2E2E2E2E20FE2E2E20FE2E2E2E2E2E20FE2E2E2E2E20FE2E2E2E2E2E26A6A6A6A6A6A6A6A6AE2E2E2E2E29EE26AE2E2E2E2E2E2E2E2E2E2E2E2E2E2E2E2E2E2E2E2E20FE2E2E2E2E2E2E2E2E2E2E2E2E2E2E2E2E2E2E2E2E26A9EE2
310
E2E2E2E26A6A6A6A6A6A6A6A6A6A0FE2E2E2E20F0FE2E2E2E2E2E20F0F0F0F0F0FE20F0F0FE2E2E2E2E2E2E2E2E2E2E2E2E2E2E2E2E2E2E2E2E2E2E20FE2E2E2E20FE2E2E2E2E2E2E2E2E2E2E2E2E2E2E2E2E2E2E2E2E2E2E2E2F5E2E2E2E2E2E2E2E2E2E2E2E2E2E2E2E2E2E2E2E2E2E2E2E2E2E2E2E2E2E2E2E2E2E2E2E2
310
E2E2E2E2E2E2E2E2E2E2E2E2E2E2E2E2E2E2E2E2E2E2E2E2E2E2E2E2E2E2E2E2E2E2E2E2F5E2E2E2E2E20FE2E2E20FE2E2E2E2E2E20FE2E2E2E20F0FE2E2E2E2E2E29E9E9E9E9E9E9E9E9E6AE2E2E2E2E29E6AE2E2E2E2E2E2E2E2E2E2E2E2E2E2E2E2E2E2E2E2E20FE2E2E2E2E2E2E2E2E2E2E2E2E2E2E2E2E2E2E2E2E26A
310
9EE2E2E2E26A9E9E9E9E9E9E9E9E9E6A0FE2E2E2E2E2E20F0F0F0F0F0F0F0FE20F0F0F0F0F0F0FE2E2E2E2E2E2E2E2E2E2E2E2E2E2E2E2E2E2E2E2E2E2E20FE2E2E2E20FE2E2E2E2E2E2E2E2E2E2E2E2E2E2E2E2E2E2E2E2E2E2E2E2F5E2E2E2E2E2E2E2E2E2E2E2E2E2E2E2E2E2E2E2E2E2E2E2E2E2E2E2E2E2E2E2E2E2E2
310
E2E2E2E2E2E2E2E2E2E2E2E2E2E2E2E2E2E2E2E2E2E2E2E2E2E2E2E2E2E2E2E2E2E2E2E2E2E2F5E2E2E2E2E20FE2E2E20FE2E2E2E2E2E20FE2E2E2E2E20FE2E2E2E2E2E29EE2E257E2E2E2E29E9E6AE2E2E2E2E29EE2E2E2E2E2E2E2E2E2E2E2E2E2E2E2E2E2E2E2E2E20FE2E2E2E2E2E2E2E2E2E2E2E2E2E2E2E2E2E2E2E2
310
E26A9EE2E2E2E26A9EE2E2E2E257E2E29E6AE20FE2E2E2E2E2E2E2E2E2E2E20F0F0F0F0F0F0F0F0F0FE2E2E2E2E2E2E2E2E2E2E2E2E2E2E2E2E2E2E2E2E2E2E20FE2E2E2E20FE2E2E2E2E2E2E2E2E2E2E2E2E2E2E2E2E2E2E2E2E2E2E2E2F5E2E2E2E2E2E2E2E2E2E2E2E2E2E2E2E2E2E2E2E2E2E2E2E2E2E2E2E2E2E2E2E2
310
E2E2E2E2E2E2E2E2E2E2E2E2E2E2E2E2E2E2E2E2E2E2E2E2E2E2E2E2E2E2E2E2E2E2E2E2E2E2E2E2F5E2E2E2E2E20FE2E2E20FE2E2E2E2E2E20FE2E2E2E2E20F0F0F0F0F0F0F9E0F0F0F0F0F0F0F0F9E6AE2E2E2E2E26A9EE2E2E2E2E2E2E2E2E2E2E2E2E2E2E2E2E2E2E2E20FE2E2E2E2E2E2E2E2E2E2E2E2E2E2E2E2E2E2
310
E2E2E26A9EE2E2E2E26A9EE2E2E2E257E2E29E6AE2E20FE2E2E2E2E20F0F0F0F0F0F0F0F0F0F0F0F0F0F0FE20F0FE20F0F0F0F0F0FE2E2E2E2E2E2E2E2E2E2E2E2E20FE2E2E2E20FE2E2E2E2E2E2E2E2E2E2E2E2E2E2E2E2E2E2E2E2E2E2E2E2F5E2E2E2E2E2E2E2E2E2E2E2E2E2E2E2E2E2E2E2E2E2E2E2E2E2E2E2E2E2E2
310
E2E2E2E2E2E2E2E2E2E2E2E2E2E2E2E2E2E2E2E2E2E2E2E2E2E2E2E2E2E2E2E2E2E2E2E2E2E2E2E2E2E2F5E2E2E2E2E20FE2E2E20FE2E2E2E2E2E20FE2E2E2E2E2E2E2E2E2E2E2E29E9E9E9E9E9E9E9E9E6AE2E2E2E2E2E26AE29EE2E2E2E2E2E2E2E2E2E2E2E2E2E2E2E2E2E2E20FE2E2E2E2E2E2E2E2E2E2E2E2E2E2E2E2
310
E2E2E2E2E26A9EE2E2E2E26A9E9E9E9E9E9E9E9E9E6AE2E2E20F0F0F0F0F0F0F0F0F0F0F0F0FE20F0F0F0F0F0FE20F0F0F0F0F0F0F0F0FE2E2E2E2E2E2E2E2E2E2E2E2E20FE2E2E2E20FE2E2E2E2E2E2E2E2E2E2E2E2E2E2E2E2E2E2E2E2E2E2E2E2F5E2E2E2E2E2E2E2E2E2E2E2E2E2E2E2E2E2E2E2E2E2E2E2E2E2E2E2E2
310
E2E2E2E2E2E2E2E2E2E2E2E2E2E2E2E2E2E2E2E2E2E2E2E2E2E2E2E2E2E2E2E2E2E2E2E2E2E2E2E2E2E2E2E2F5E2E2E2E2E20FE2E2E20FE2E2E2E2E2E20FE2E2E2E20F0F0FE2E2E2E2E26A6A6A6A6A6A6A6A6A6AE2E2E2E2E2E26AE2E29EE2E2E2E2E2E2E2E2E2E2E2E2E2E2E2E2E2E20FE2E2E2E2E2E2E2E2E2E2E2E2E2E2
310
E2E2E2E2E2E2E26A9EE2E2E2E2E26A6A6A6A6A6A6A6A6A6AE2E2E2E2E2E2E2E20F0F0F0F0F0F0F0F0F0F0F0F0F0F0FE20F0F0F0F0F0F0F0F0FE2E2E2E2E2E2E2E2E2E2E2E20F0FE2E2E2E20FE2E2E2E2E2E2E2E2E2E2E2E2E2E2E2E2E2E2E2E2E2E2E2E2F5E2E2E2E2E2E2E2E2E2E2E2E2E2E2E2E2E2E2E2E2E2E2E2E2E2E2
310
E2E2E2E2E2E2E2E2E2E2E2E2E2E2E2E2E2E2E2E2E2E2E2E2E2E2E2E2E2E2E2E2E2E2E2E2E2E2E2E2E2E2E2E2E2E2F5E2E2E2E2E20FE2E2E20FE2E2E2E2E2E20FE2E2E2E20F0F0FE2E2E2E2E2E2E2E257E2E2E2E2E2E2E2E2E2E2E2E26AE2E2E29EE2E2E2E2E2E2E2E2E2E2E2E2E2E2E2E2E20FE2E2E2E2E2E2E2E2E2E2E2E2
310
E2E2E2E2E2E2E2E2E26A9EE2E2E2E2E2E2E2E2E2E257E2E2E2E2E2E2E2E2E2E2E2E2E2E2E2E2E2E2E2E2E2E2E2E2E2E2E2E2E2E2E2E2E2E2E2E2E2E2E2E2E2E2E2E2E2E2E2E2E2E20FE2E2E2E20FE2E2E2E2E2E2E2E2E2E2E2E2E2E2E2E2E2E2E2E2E2E2E2E2F5E2E2E2E2E2E2E2E2E2E2E2E2E2E2E2E2E2E2E2E2E2E2E2E2
310
E2E2E2E2E2E2E2E2E2E2E2E2E2E2E2E2E2E2E2E2E2E2E2E2E2E2E2E2E2E2E2E2E2E2E2E2E2E2E2E2E2E2E2E2E2E2E2E2F5E2E2E2E2E20FE2E2E20FE2E2E2E2E20F0FE2E2E2E20F0F0FE2E2E2E2E26A6A6A6A6A6A6A6A6AE2E2E2E2E2E2E26A6A6A6A6A9E6A6A6A6A6A6A6A6A6A6A6A6A6A6A6A6A0F6A6A6A6A6A6A6A6A6A6A
310
6A6A6A6A6A6A6A6A6A6A6A0F0F0F0F0F0F0F6A6A6A6A6A6A6A6A6A6A0F0F0F0F0F0F0F0F0F0F0F0F0F0F0F0F0F0F0F0F0F0F0F0F0F0F0F0F0F0F0F0F0F0F0F0F0F0F0F0F0F0F0F0F0F0F0FE2E2E2E20F0FE2E2E2E2E2E2E2E2E2E2E2E2E2E2E2E2E2E2E2E2E2E2E2F5E2E2E2E2E2E2E2E2E2E2E2E2E2E2E2E2E2E2E2E2E2E2
310
E2E2E2E2E2E2E2E2E2E2E2E2E2E2E2E2E2E2E2E2E2E2E2E2E2E2E2E2E2E2E2E2E2E2E2E2E2E2E2E2E2E2E2E2E2E2E2E2E2E2F5E2E2E2E2E20FE2E2E20FE2E2E2E2E20F0FE2E2E2E2E2E2E2E2E2E2E2E29E9E9E9E9E9E9E9E9E6AE2E2E2E2E2E2E2E2E2E2E2E29EE2E2E2E2E2E2E2E2E2E2E2E2E2E2E20FE2E2E2E2E2E2E2E2
310
E2E2E2E2E2E2E2E2E2E2E2E2E2E29EE2E2E2E26A9E9E9E9E9E9E9E9E9E6AE2E2E2E2E2E2E2E2E2E2E2E2E2E2E2E2E2E2E2E2E2E2E2E2E2E2E2E2E2E2E2E2E2E2E2E2E2E2E2E2E2E2E2E2E2E2E2E2E2E2E20F0FE2E2E2E2E2E2E2E2E2E2E2E2E2E2E2E2E2E2E2E2E2E2E2F5E2E2E2E2E2E2E2E2E2E2E2E2E2E2E2E2E2E2E2E2
310
E2E2E2E2E2E2E2E2E2E2E2E2E2E2E2E2E2E2E2E2E2E2E2E2E2E2E2E2E2E2E2E2E2E2E2E2E2E2E2E2E2E2E2E2E2E2E2E2E2E2E2E2F5E2E2E2E2E20FE2E2E20FE2E2E2E2E2E20FE2E2E2E2E2E2E2E2E2E2E2E29EE2E257E2E2E2E29E9E6AE2E2E2E2E2E2E2E2E2E2E2E29E9E9E9E9E9E9E9E9E9E9E9E9E9E9E0F9E9E9E9E9E9E
310
9E9E9E9E9E9E9E9E9E9E9E9E9E9E9E9E0F0F0F0F0F6A9E0F0F0F0F0F0F0F9E6A0F0F0F0F0F0F0F0F0F0F0F0F0F0F0F0F0F0F0F0F0F0F0F0F0F0F0F0F0F0F0F0F0F0F0F0F0F0F0F0F0F0F0F0F0F0F0F0F0F0F0F0FE2E2E2E2E2E2E2E2E2E2E2E2E2E2E2E2E2E2E2E2E2E2E2E2F5E2E2E2E2E2E2E2E2E2E2E2E2E2E2E2E2E2E2
310
E2E2E2E2E2E2E2E2E2E2E2E2E2E2E2E2E2E2E2E2E2E2E2E2E2E2E2E2E2E2E2E2E2E2E2E2E2E2E2E2E2E2E2E2E2E2E2E2E2E2E2E2E2E2F5E2E2E2E2E20FE2E2E20FE2E2E2E2E2E20F0F0F0F0F0F0F0F0F0F0F0F0F9E0F0F0F0F0F0F0F9E9E6AE2E2E2E2E2E2E2E2E2E2E2E2E2E2E2E2E2E2E2E2E2E2E2E2E2E2E20FE2E2E2E2
310
E2E2E2E2E2E2E2E2E2E2E2E2E2E2E2E2E2E2E2E2E2E2E26A9EE2E2E2E257E2E29E6AE2E2E2E2E2E2E2E2E2E2E2E2E2E2E2E2E2E2E2E2E2E2E2E2E2E2E2E2E2E2E2E2E2E2E2E2E2E2E2E2E2E2E2E2E2E2E2E2E2E2E2E2E2E2E2E2E2E2E2E2E2E2E2E2E2E2E2E2E2E2E2E2E2E2E2E2F5E2E2E2E2E2E2E2E2E2E2E2E2E2E2E2E2
310
E2E2E2E2E2E2E2E2E2E2E2E2E2E2E2E2E2E2E2E2E2E2E2E2E2E2E2E2E2E2E2E2E2E2E2E2E2E2E2E2E2E2E2E2E2E2E2E2E2E2E2E2E2E2E2E2F5E2E2E2E2E20FE2E2E20FE2E2E2E2E2E2E2E2E2E2E2E20FE2E2E2E2E2E29E9E9E9E9E9E9E9E9E6AE2E2E2E2E2E2E2E2E2E2E2E2E2E2E2E2E2E2E2E2E2E2E2E2E2E2E2E20FE2E2
310
E2E2E2E2E2E2E2E2E2E2E2E2E2E2E2E2E2E2E2E2E2E2E2E2E26A9E9E9E9E9E9E9E9E9E6AE2E2E2E2E2E2E2E2E2E2E2E2E2E2E2E2E2E2E2E2E2E2E2E2E2E2E2E2E2E2E2E2E2E2E2E2E2E2E2E2E2E2E2E2E2E2E2E2E2E2E2E2E2E2E2E2E2E2E2E2E2E2E2E2E2E2E2E2E2E2E2E2E2E2E2E2F5E2E2E2E2E2E2E2E2E2E2E2E2E2E2
310
E2E2E2E2E2E2E2E2E2E2E2E2E2E2E2E2E2E2E2E2E2E2E2E2E2E2E2E2E2E2E2E2E2E2E2E2E2E2E2E2E2E2E2E2E2E2E2E2E2E2E2E2E2E2E2E2E2E2F5E2E2E2E2E20FE2E2E20FE2E2E2E2E2E2E2E2E2E2E20F0FE2E2E2E2E2E26A6A6A6A6A6A6A6A6AE2E2E2E2E2E2E2E2E2E2E2E2E2E2E2E2E2E2E2E2E2E2E2E2E2E2E2E2E20F
310
E2E2E2E2E2E2E2E2E2E2E2E2E2E2E2E2E2E2E2E2E2E2E2E2E2E2E2E26A6A6A6A6A6A6A6A6A6AE2E2E2E2E2E2E2E2E2E2E2E2E2E2E2E2E2E2E2E2E2E2E2E2E2E2E2E2E2E2E2E2E2E2E2E2E2E2E2E2E2E2E2E2E2E2E2E2E2E2E2E2E2E2E2E2E2E2E2E2E2E2E2E2E2E2E2E2E2E2E2E2E2E2E2E2F5E2E2E2E2E2E2E2E2E2E2E2E2
310
E2E2E2E2E2E2E2E2E2E2E2E2E2E2E2E2E2E2E2E2E2E2E2E2E2E2E2E2E2E2E2E2E2E2E2E2E2E2E2E2E2E2E2E2E2E2E2E2E2E2E2E2E2E2E2E2E2E2E2E2F5E2E2E2E2E20FE2E2E20FE2E2E2E2E2E2E2E2E2E2E2E20FE2E2E2E2E2E20FE2E257E2E2E2E2E2E2E2E2E26A6AE2E2E2E2E26A6AE2E2E2E2E26A6AE2E2E2E2E26A6AE2
310
E20FE2E26AE2E2E2E2E2E26AE2E2E2E2E2E26AE2E2E2E2E2E26AE2E2E2E2E2E2E2E2E257E2E20FE2E2E2E2E2E2E2E2E2E2E2E2E2E2E2E2E2E2E2E2E2E2E2E2E2E2E2E2E2E2E2E2E2E2E2E2E2E2E2E2E2E2E2E2E2E2E2E2E2E2E2E2E2E2E2E2E2E2E2E2E2E2E2E2E2E2E2E2E2E2E2E2E2E2E2E2E2F5E2E2E2E2E2E2E2E2E2E2
310
E2E2E2E2E2E2E2E2E2E2E2E2E2E2E2E2E2E2E2E2E2E2E2E2E2E2E2E2E2E2E2E2E2E2E2E2E2E2E2E2E2E2E2E2E2E2E2E2E2E2E2E2E2E2E2E2E2E2E2E2E2E2F5E2E2E2E2E20FE2E2E20FE2E2E2E2E2E2E2E2E2E2E2E20FE2E2E2E2E2E20FE2E257E2E2E2E2E2E2E2E26A9E9E6A6AE26A6A9E9E6AE2E26A6A9E9E6AE2E26A6A9E
310
9E6AE20F6A9E9E9E6AE2E26A9E9E9E6AE2E26A9E9E9E6AE2E26A9E9E6A6AE2E2E2E2E2E2E257E2E20FE2E2E2E2E2E2E2E2E2E2E2E2E2E2E2E2E2E2E2E2E2E2E2E2E2E2E2E2E2E2E2E2E2E2E2E2E2E2E2E2E2E2E2E2E2E2E2E2E2E2E2E2E2E2E2E2E2E2E2E2E2E2E2E2E2E2E2E2E2E2E2E2E2E2E2E2E2F5E2E2E2E2E2E2E2E2
310
E2E2E2E2E2E2E2E2E2E2E2E2E2E2E2E2E2E2E2E2E2E2E2E2E2E2E2E2E2E2E2E2E2E2E2E2E2E2E2E2E2E2E2E2E2E2E2E2E2E2E2E2E2E2E2E2E2E2E2E2E2E2E2E2F5E2E2E2E2E20FE2E2E20FE2E2E2E2E2E2E2E2E2E2E2E2E2E2E2E2E2E2E20FE2E257E2E2E2E2E2E2E26A9E9E9E9E6AE26A9E9E9E9E6AE26A9EE29E9E6AE26A
310
9EE29E9E6A0F6A9EE29E9E6AE29E9EE29E9E6A6A9E9EE29E9EE26A9E9E0F9E6AE2E2E2E2E2E2E257E2E20FE2E2E2E2E2E2E2E2E2E2E2E2E2E2E2E2E2E2E2E2E2E2E2E2E2E2E2E2E2E2E2E2E2E2E2E2E2E2E2E2E2E2E2E2E2E2E2E2E2E2E2E2E2E2E2E2E2E2E2E2E2E2E2E2E2E2E2E2E2E2E2E2E2E2E2E2E2F5E2E2E2E2E2E2
310
E2E2E2E2E2E2E2E2E2E2E2E2E2E2E2E2E2E2E2E2E2E2E2E2E2E2E2E2E2E2E2E2E2E2E2E2E2E2E2E2E2E2E2E2E2E2E2E2E2E2E2E2E2E2E2E2E2E2E2E2E2E2E2E2E2E2F5E2E2E2E2E20FE2E2E20FE2E2E2E2E2E2E2E2E2E2E2E2E2E2E2E2E2E2E20FE2E257E2E2E2E2E2E2E26A9EE20F9E6AE26A9EE2E29E6AE26A9EE2E29E6A
310
E26A9EE2E29E6A0F9EE2E2E29E6A6A9EE2E2E29E6A6A9EE2E2E29EE26A9EE20F9E9EE2E2E2E2E2E2E257E2E20FE2E2E2E2E2E2E2E2E2E2E2E2E2E2E2E2E2E2E2E2E2E2E2E2E2E2E2E2E2E2E2E2E2E2E2E2E2E2E2E2E2E2E2E2E2E2E2E2E2E2E2E2E2E2E2E2E2E2E2E2E2E2E2E2E2E2E2E2E2E2E2E2E2E2E2E2E2F5E2E2E2E2
310
E2E2E2E2E2E2E2E2E2E2E2E2E2E2E2E2E2E2E2E2E2E2E2E2E2E2E2E2E2E2E2E2E2E2E2E2E2E2E2E2E2E2E2E2E2E2E2E2E2E2E2E2E2E2E2E2E2E2E2E2E2E2E2E2E2E2E2E2F5E2E2E2E2E20FE2E2E20FE2E2E2E2E2E2E2E2E2E2E2E2E2E2E2E2E2E2E20FE2E257E2E2E2E2E2E2E26A9EE20F9E6AE26A9EE2E29E6AE26A9EE2E2
310
9E6AE26A9EE2E29E6A0F9EE2E2E29E6A6A9EE2E2E29E6A6A9EE2E2E29EE26A9EE20FE29EE2E2E2E2E2E2E257E2E20FE2E2E2E2E2E2E2E2E2E2E2E2E2E2E2E2E2E2E2E2E2E2E2E2E2E2E2E2E2E2E2E2E2E2E2E2E2E2E2E2E2E2E2E2E2E2E2E2E2E2E2E2E2E2E2E2E2E2E2E2E2E2E2E2E2E2E2E2E2E2E2E2E2E2E2E2E2F5E2E2
310
E2E2E2E2E2E2E2E2E2E2E2E2E2E2E2E2E2E2E2E2E2E2E2E2E2E2E2E2E2E2E2E2E2E2E2E2E2E2E2E2E2E2E2E2E2E2E2E2E2E2E2E2E2E2E2E2E2E2E2E2E2E2E2E2E2E2E2E2E2E2F5E2E2E2E2E20FE2E2E20F0FE2E2E2E2E2E2E2E2E2E2E2E2E2E2E2E2E2E20FE2E257E2E2E2E2E2E2E26A9EE20F9E6AE26A9EE2E29E6AE26A9E
310
E2E29E6AE26A9EE2E29E6A0F9EE2E2E29E6A6A9EE2E2E29E6A6A9EE2E2E29EE26A9EE20FE29EE2E2E2E2E2E2E257E2E20FE2E2E2E2E2E2E2E2E2E2E2E2E2E2E2E2E2E2E2E2E2E2E2E2E2E2E2E2E2E2E2E2E2E2E2E2E2E2E2E2E2E2E2E2E2E2E2E2E2E2E2E2E2E2E2E2E2E2E2E2E2E2E2E2E2E2E2E2E2E2E2E2E2E2E2E2E2F5
310
E2E2E2E2E2E2E2E2E2E2E2E2E2E2E2E2E2E2E2E2E2E2E2E2E2E2E2E2E2E2E2E2E2E2E2E2E2E2E2E2E2E2E2E2E2E2E2E2E2E2E2E2E2E2E2E2E2E2E2E2E2E2E2E2E2E2E2E2E2E2E2E2F5E2E2E2E2E20FE2E2E20F0FE2E2E2E2E2E2E2E2E2E2E2E2E2E2E2E2E2E20FE2E257E2E2E2E2E2E2E26A9EE20F9E6AE26A9EE2E29E6AE2
310
6A9EE2E29E6AE26A9EE2E29E6A0F9EE2E2E29E6A6A9EE2E2E29E6A6A9EE2E2E29EE26A9EE20FE29EE2E2E2E2E2E2E257E2E20FE2E2E2E2E2E2E2E2E2E2E2E2E2E2E2E2E2E2E2E2E2E2E2E2E2E2E2E2E2E2E2E2E2E2E2E2E2E2E2E2E2E2E2E2E2E2E2E2E2E2E2E2E2E2E2E2E2E2E2E2E2E2E2E2E2E2E2E2E2E2E2E2E2E2E2E2
310
E2F5E2E2E2E2E2E2E2E2E2E2E2E2E2E2E2E2E2E2E2E2E2E2E2E2E2E2E2E2E2E2E2E2E2E2E2E2E2E2E2E2E2E2E2E2E2E2E2E2E2E2E2E2E2E2E2E2E2E2E2E2E2E2E2E2E2E2E2E2E2E2E2E2F5E2E2E2E2E20F0FE2E20F0F0F0F0F0F0F0F0F0F0F0F0F0F0F0F0F0F0F0F0F0F0F0F575757575757576A9E570F9E6A576A9E57579E
310
6A576A9E57579E6A576A9E57579E6A0F9E5757579E6A6A9E5757579E6A6A9E5757579E576A9E570F579E575757575757570FE2E20FE2E2E2E2E2E2E2E2E2E2E2E2E2E2E2E2E2E2E2E2E2E2E2E2E2E2E2E2E2E2E2E2E2E2E2E2E2E2E2E2E2E2E2E2E2E2E2E2E2E2E2E2E2E2E2E2E2E2E2E2E2E2E2E2E2E2E2E2E2E2E2E2E2E2
310
E2E2E2F5E2E2E2E2E2E2E2E2E2E2E2E2E2E2E2E2E2E2E2E2E2E2E2E2E2E2E2E2E2E2E2E2E2E2E2E2E2E2E2E2E2E2E2E2E2E2E2E2E2E2E2E2E2E2E2E2E2E2E2E2E2E2E2E2E2E2E2E2E2E2E2E2F5E2E2E2E2E20F0FE2E2E2E2E2E2E2E2E2E2E2E2E2E2E2E2E2E2E2E2E2E20FE2E20FE2E2E2E2E2E2E26A9EE20F9E6AE26A9EE2
310
E29E6AE26A9EE2E29E6AE26A9EE2E29E6A0F9EE2E2E29E6A6A9EE2E2E29E6A6A9EE2E2E29EE26A9EE20FE29EE2E2E2E2E2E2E20FE2E20FE2E2E2E2E2E2E2E2E2E2E2E2E2E2E2E2E2E2E2E2E2E2E2E2E2E2E2E2E2E2E2E2E2E2E2E2E2E2E2E2E2E2E2E2E2E2E2E2E2E2E2E2E2E2E2E2E2E2E2E2E2E2E2E2E2E2E2E2E2E2E2E2
310
E2E2E2E2E2F5E2E2E2E2E2E2E2E2E2E2E2E2E2E2E2E2E2E2E2E2E2E2E2E2E2E2E2E2E2E2E2E2E2E2E2E2E2E2E2E2E2E2E2E2E2E2E2E2E2E2E2E2E2E2E2E2E2E2E2E2E2E2E2E2E2E2E2E2E2E2E2E2F5E2E2E2E2E20F0F0F0F0F0F0F0F0F0F0F0F0F0F0F0F0F0F0F0F0F0F0F0F0F0F0F0F0F0F0F0F0F0F0F6A9E9E9E9E6A0F6A
310
9E9E9E9E6A0F6A9E9E9E9E6AE26A9E9E9E9E6A0F9E9E9E9E9E6A6A9E9E9E9E9E6A6A9E9E9E9E9EE26A9E9E9E9E9EE2E2E2E2E2E2E20FE2E20FE2E2E2E2E2E2E2E2E2E2E2E2E2E2E2E2E2E2E2E2E2E2E2E2E2E2E2E2E2E2E2E2E2E2E2E2E2E2E2E2E2E2E2E2E2E2E2E2E2E2E2E2E2E2E2E2E2E2E2E2E2E2E2E2E2E2E2E2E2E2
310
E2E2E2E2E2E2E2F5E2E2E2E2E2E2E2E2E2E2E2E2E2E2E2E2E2E2E2E2E2E2E2E2E2E2E2E2E2E2E2E2E2E2E2E2E2E2E2E2E2E2E2E2E2E2E2E2E2E2E2E2E2E2E2E2E2E2E2E2E2E2E2E2E2E2E2E2E2E2E2E2F5E2E2E2E2E2E2E2E2E2E2E2E2E2E2E2E2E2E2E2E2E2E2E2E2E2E2E2E2E20FE2E20FE2E2E2E2E2E2E26A6A6A6A6A6A
310
E26A6A6A6A6A6AE26A6A6A6A6A6AE26A6A6A6A6A6A0F6A6A6A6A6A6A6A6A6A6A6A6A6A6A6A6A6A6A6AE26A6A6A6A6A6AE2E2E2E2E2E2E20FE2E20FE2E2E2E2E2E2E2E2E2E2E2E2E2E2E2E2E2E2E2E2E2E2E2E2E2E2E2E2E2E2E2E2E2E2E2E2E2E2E2E2E2E2E2E2E2E2E2E2E2E2E2E2E2E2E2E2E2E2E2E2E2E2E2E2E2E2E2E2
310
E2E2E2E2E2E2E2E2E2F5E2E2E2E2E2E2E2E2E2E2E2E2E2E2E2E2E2E2E2E2E2E2E2E2E2E2E2E2E2E2E2E2E2E2E2E2E2E2E2E2E2E2E2E2E2E2E2E2E2E2E2E2E2E2E2E2E2E2E2E2E2E2E2E2E2E2E2E2E2E2E2E2F5E2E2E2E2E2E2E2E2E2E2E2E2E2E2E2E2E2E2E2E2E2E2E2E2E2E2E2E2E20FE2E20FE2E2E2E2E2E2E2E2E2E20F
310
E2E2E2E2E2E2E2E2E2E2E2E2E2E2E2E2E2E2E2E2E2E2E20FE2E2E2E2E2E2E2E2E2E2E2E2E2E2E2E2E2E2E2E2E2E2E20FE2E2E2E2E2E2E2E2E20FE2E20FE2E2E2E2E2E2E2E2E2E2E2E2E2E2E2E2E2E2E2E2E2E2E2E2E2E2E2E2E2E2E2E2E2E2E2E2E2E2E2E2E2E2E2E2E2E2E2E2E2E2E2E2E2E2E2E2E2E2E2E2E2E2E2E2E2E2
310
E2E2E2E2E2E2E2E2E2E2E2F5E2E2E2E2E2E2E2E2E2E2E2E2E2E2E2E2E2E2E2E2E2E2E2E2E2E2E2E2E2E2E2E2E2E2E2E2E2E2E2E2E2E2E2E2E2E2E2E2E2E2E2E2E2E2E2E2E2E2E2E2E2E2E2E2E2E2E2E2E2E2E2E2F5E2E2E2E2E2E2E2E2E2E2E2E2E2E2E2E2E2E2E2E2E2E2E2E2E2E2E2E2E20FE2E20FE2E2E2E2E2E2E2E2E2
310
E20FE2E2E2E2E2E2E2E2E2E2E2E2E2E2E2E2E2E2E2E2E2E2E2E2E2E2E2E2E2E2E2E2E2E2E2E2E2E2E2E2E2E2E2E2E2E2E20FE2E2E2E2E2E2E2E2E20FE2E20FE2E2E2E2E2E2E2E2E2E2E2E2E2E2E2E2E2E2E2E2E2E2E2E2E2E2E2E2E2E2E2E2E2E2E2E2E2E2E2E2E2E2E2E2E2E2E2E2E2E2E2E2E2E2E2E2E2E2E2E2E2E2E2E2
310
E2E2E2E2E2E2E2E2E2E2E2E2E2F5E2E2E2E2E2E2E2E2E2E2E2E2E2E2E2E2E2E2E2E2E2E2E2E2E2E2E2E2E2E2E2E2E2E2E2E2E2E2E2E2E2E2E2E2E2E2E2E2E2E2E2E2E2E2E2E2E2E2E2E2E2E2E2E2E2E2E2E2E2E2E2E2F5E2E2E2E2E2E2E2E2E2E2E2E2E2E2E2E2E2E2E2E2E2E2E2E2E2E2E2E2E20FE2E20FE2E2E2E2E2E2E2
310
E2E2E20FE2E2E2E2E2E2E2E2E2E2E2E2E2E2E2E2E2E2E2E2E20F0F0F0FE2E2E2E2E2E2E2E2E2E2E2E2E2E2E2E2E2E2E2E2E2E20FE2E2E2E2E2E2E2E2E20FE2E20FE2E2E2E2E2E2E2E2E2E2E2E2E2E2E2E2E2E2E2E2E2E2E2E2E2E2E2E2E2E2E2E2E2E2E2E2E2E2E2E2E2E2E2E2E2E2E2E2E2E2E2E2E2E2E2E2E2E2E2E2E2E2
310
E2E2E2E2E2E2E2E2E2E2E2E2E2E2E2F5E2E2E2E2E2E2E2E2E2E2E2E2E2E2E2E2E2E2E2E2E2E2E2E2E2E2E2E2E2E2E2E2E2E2E2E2E2E2E2E2E2E2E2E2E2E2E2E2E2E2E2E2E2E2E2E2E2E2E2E2E2E2E2E2E2E2E2E2E2E2E2E2F5E2E2E2E2E2E2E2E2E2E2E2E2E2E2E2E2E2E2E2E2E2E2E2E2E2E2E2E2E20FE2E20FE2E2E2E2E2
310
E2E2E2E2E20F0F0F0F0F0F0F0F0F0F0F0F0F0F0F0F0F0F0F0F0F0F0F0F0F0F0F0F0F0F0F0F0F0F0F0F0F0F0F0F0F0F0F0F0F0F0F0F0FE2E2E2E2E2E2E2E2E20FE2E20FE2E2E2E2E2E2E2E2E2E2E2E2E2E2E2E2E2E2E2E2E2E2E2E2E2E2E2E2E2E2E2E2E2E2E2E2E2E2E2E2E2E2E2E2E2E2E2E2E2E2E2E2E2E2E2E2E2E2E2E2
310
E2E2E2E2E2E2E2E2E2E2E2E2E2E2E2E2E2F5E2E2E2E2E2E2E2E2E2E2E2E2E2E2E2E2E2E2E2E2E2E2E2E2E2E2E2E2E2E2E2E2E2E2E2E2E2E2E2E2E2E2E2E2E2E2E2E2E2E2E2E2E2E2E2E2E2E2E2E2E2E2E2E2E2E2E2E2E2E2E2E2F5E2E2E2E2E2E2E2E2E2E2E2E2E2E2E2E2E2E2E2E2E2E2E2E2E2E2E2E2E20FE2E20FE2E2E2
310
E2E2E2E2E2E2E2E20F0FE2E2E2E2E2E2E2E2E2E2E2E2E2E2E2E2E2E2E20F0F0F0F0FE2E2E2E2E2E2E2E2E2E2E2E2E2E2E2E2E2E2E20F0FE2E2E2E2E2E2E2E2E2E20FE2E20FE2E2E2E2E2E2E2E2E2E2E2E2E2E2E2E2E2E2E2E2E2E2E2E2E2E2E2E2E2E2E2E2E2E2E2E2E2E2E2E2E2E2E2E2E2E2E2E2E2E2E2E2E2E2E2E2E2E2
310
E2E2E2E2E2E2E2E2E2E2E2E2E2E2E2E2E2E2E2F5E2E2E2E2E2E2E2E2E2E2E2E2E2E2E2E2E2E2E2E2E2E2E2E2E2E2E2E2E2E2E2E2E2E2E2E2E2E2E2E2E2E2E2E2E2E2E2E2E2E2E2E2E2E2E2E2E2E2E2E2E2E2E2E2E2E2E2E2E2E2E2E2F5E2E2E2E2E2E2E2E2E2E2E2E2E2E2E2E2E2E2E2E2E2E2E2E2E2E2E2E2E20FE2E20FE2
310
E2E2E2E2E2E2E2E2E2E2E2E2E2E2E2E2E2E2E2E2E2E2E2E2E2E2E2E2E2E2E20F0F0F0FE2E2E2E2E2E2E2E2E2E2E2E2E2E2E2E2E2E2E2E2E2E2E2E2E2E2E2E2E2E2E2E20FE2E20FE2E2E2E2E2E2E2E2E2E2E2E2E2E2E2E2E2E2E2E2E2E2E2E2E2E2E2E2E2E2E2E2E2E2E2E2E2E2E2E2E2E2E2E2E2E2E2E2E2E2E2E2E2E2E2E2
310
E2E2E2E2E2E2E2E2E2E2E2E2E2E2E2E2E2E2E2E2E2F5E2E2E2E2E2E2E2E2E2E2E2E2E2E2E2E2E2E2E2E2E2E2E2E2E2E2E2E2E2E2E2E2E2E2E2E2E2E2E2E2E2E2E2E2E2E2E2E2E2E2E2E2E2E2E2E2E2E2E2E2E2E2E2E2E2E2E2E2E2E2E2E2F5E2E2E2E2E2E2E2E2E2E2E2E2E2E2E2E2E2E2E2E2E2E2E2E2E2E2E2E2E20FE2E2
310
0FE2E2E2E2E2E2E2E2E2E2E2E2E2E2E2E2E2E2E2E2E2E2E2E2E2E2E2E2E2E2E2E2E20F0FE2E2E2E2E2E2E2E2E2E2E2E2E2E2E2E2E2E2E2E2E2E2E2E2E2E2E2E2E2E2E2E2E20FE2E20FE2E2E2E2E2E2E2E2E2E2E2E2E2E2E2E2E2E2E2E2E2E2E2E2E2E22D2D2D2D2D2D2D2D2D2D2D2D2D2D2D2DE22D2D2DE2E2E2E2E2E2E2E2
310
E2E2E2E2E2E2E2E2E2E2E2E2E2E2E2E2E2E2E2E2E2E2E2F5E2E2E2E2E2E2E2E2E2E2E2E2E2E2E2E2E2E2E2E2E2E2E2E2E2E2E2E2E2E2E2E2E2E2E2E2E2E2E2E2E2E2E2E2E2E2E2E2E2E2E2E2E2E2E2E2E2E2E2E2E2E2E2E2E2E2E2E2E2E2E2E2F5E2E2E2E2E2E2E2E2E2E2E2E2E2E2E2E2E2E2E2E2E2E2E2E2E2E2E2E2E20F
310
E2E20F0F0F0F0F0F0F0F0F0F0F0F0F0F0F0F0F0F0F0F0F0F0F0F0F0F0F0F0F0F0F0F0F0F0F0F0F0F0F0F0F0F0F0F0F0F0F0F0F0F0F0F0F0F0F0F0F0F0F0F0F0F0F0F0F0F0F0F0F0FE2E20FE2E2E2E2E2E2E2E2E2E2E2E2E2E2E2E2E2E2E2E2E2E2E2E2E2E22D2D2D2D2D2D2D2D2D2D2D2D2DE22D2DE22D2D2DE2E2E2E2E2E2
310
E2E2E2E2E2E2E2E2E2E2E2E2E2E2E2E2E2E2E2E2E2E2E2E2E2F5E2E2E2E2E2E2E2E2E2E2E2E2E2E2E2E2E2E2E2E2E2E2E2E2E2E2E2E2E2E2E2E2E2E2E2E2E2E2E2E2E2E2E2E2E2E2E2E2E2E2E2E2E2E2E2E2E2E2E2E2E2E2E2E2E2E2E2E2E2E2E2E2F5E2E2E2E2E2E2E2E2E2E2E2E2E2E2E2E2E2E2E2E2E2E2E2E2E2E2E2E2
310
E20FE2E2E20F0FE2E2E2E2E2E2E2E2E2E2E2E2E2E2E2E2E2E2E2E2E2E2E2E2E2E2E2E2E2E2E20F0FE2E2E2E2E2E2E2E2E2E2E2E2E2E2E2E2E2E2E2E2E2E2E2E2E2E2E2E2E2E2E20F0FE2E2E20FE2E2E2E2E2E2E2E2E2E2E2E2E2E2E2E2E2E2E2E2E2E2E2E2E2E22D2D2D2D2D2D2D2D2D2D2D2DE22D2D2DE22D2D2DE2E2E2E2
310
E2E2E2E2E2E2E2E2E2E2E2E2E2E2E2E2E2E2E2E2E2E2E2E2E2E2E2F5E2E2E2E2E2E2E2E2E2E2E2E2E2E2E2E2E2E2E2E2E2E2E2E2E2E2E2E2E2E2E2E2E2E2E2E2E2E2E2E2E2E2E2E2E2E2E2E2E2E2E2E2E2E2E2E2E2E2E2E2E2E2E2E2E2E2E2E2E2E2E2E2F5E2E2E2E2E2E2E2E2E2E2E2E2E2E2E2E2E2E2E2E2E2E2E2E2E2E2
310
E2E2E20FE2E2E2E2E2E2E2E2E2E2E2E2E2E2E2E2E2E2E2E2E2E2E2E2E2E2E2E2E2E2E2E2E2E2E2E20F0F0FE2E2E2E2E2E2E2E2E2E2E2E2E2E2E2E2E2E2E2E2E2E2E2E2E2E2E2E2E2E2E2E2E2E2E20FE2E2E2E2E2E2E2E2E2E2E2E2E2E22D2D2D2D2D2D2D2D2D2D2D2D2D2D2DE22D2D2DE22D2D2D2D2D2D2DE22D2D2D2D2D2D
310
2D2DE2E2E2E2E2E2E2E2E2E2E2E2E2E2E2E2E2E2E2E2E2E2E2E2E2E2E2F5E2E2E2E2E2E2E2E2E2E2E2E2E2E2E2E2E2E2E2E2E2E2E2E2E2E2E2E2E2E2E2E2E2E2E2E2E2E2E2E2E2E2E2E2E2E2E2E2E2E2E2E2E2E2E2E2E2E2E2E2E2E2E2E2E2E2E2E2E2E2E2E2F5E2E2E2E2E2E2E2E2E2E2E2E2E2E2E2E2E2E2E2E2E2E2E2E2
310
E2E2E2E2E20F0F0F0F0F0F0F0F0F0F0F0F0F0F0F0F0F0F0F0F0F0F0F0F0F0F0F0F0F0F0F0F0F0F0F0F0F0F0F0F0F0F0F0F0F0F0F0F0F0F0F0F0F0F0F0F0F0F0F0F0F0F0F0F0F0F0F0F0F0F0F0F0F0F0F0FE2E2E2E2E2E2E2E2E2E2E2E2E2E22D2D2D2D2D2D2D2D2D2D2D2D2D2D2DE22D2D2DE22D2D2D2D2D2D2DE22D2D2D2D
310
2D2D2D2DE2E2E2E2E2E2E2E2E2E2E2E2E2E2E2E2E2E2E2E2E2E2E2E2E2E2E2F5E2E2E2E2E2E2E2E2E2E2E2E2E2E2E2E2E2E2E2E2E2E2E2E2E2E2E2E2E2E2E2E2E2E2E2E2E2E2E2E2E2E2E2E2E2E2E2E2E2E2E2E2E2E2E2E2E2E2E2E2E2E2E2E2E2E2E2E2E2E2E2E2F5E2E2E2E2E2E2E2E2E2E2E2E2E2E2E2E2E2E2E2E2E2E2
310
E2E2E2E2E2E2E2E2E20F0FE2E2E2E2E2E2E2E2E2E2E2E2E2E2E2E2E2E2E2E2E2E2E2E2E2E2E2E2E2E2E2E20F0FE20FE2E2E2E2E2E2E2E2E2E2E2E2E2E2E2E2E2E2E2E2E2E2E2E2E2E2E2E2E2E2E2E2E20F0FE2E2E2E2E2E2E2E2E2E2E2E2E2E2E22D2D2D2D2D2D2D2D2D2D2D2D2D2D2DE22D2D2DE22D2D2D2D2D2D2DE22D2D
310
2D2D2D2D2D2DE2E2E2E2E2E2E2E2E2E2E2E2E2E2E2E2E2E2E2E2E2E2E2E2E2E2E2F5E2E2E2E2E2E2E2E2E2E2E2E2E2E2E2E2E2E2E2E2E2E2E2E2E2E2E2E2E2E2E2E2E2E2E2E2E2E2E2E2E2E2E2E2E2E2E2E2E2E2E2E2E2E2E2E2E2E2E2E2E2E2E2E2E2E2E2E2E2E2E2E2F5E2E2E2E2E2E2E2E2E2E2E2E2E2E2E2E2E2E2E2E2
310
E2E2E2E2E2E2E2E2E2E2E2E2E2E2E2E2E2E2E2E2E2E2E2E2E2E2E2E2E2E2E2E2E2E2E2E2E2E2E2E2E2E2E2E2E2E2E2E2E2E2E2E2E2E2E2E2E2E2E2E2E2E2E2E2E2E2E2E2E2E2E2E2E2E2E2E2E2E2E2E2E2E2E2E2E2E2E2E2E2E2E2E2E2E2E2E2E2E2E2E2E2E2E2E2E2E2E2E2E2E2E2E2E2E2E2E2E2E2E2E2E2E2E2E2E2E2E2
310
E2E2E2E2E2E2E2E2E2E2E2E2E2E2E2E2E2E2E2E2E2E2E2E2E2E2E2E2E2E2E2E2E2E2E2F5E2E2E2E2E2E2E2E2E2E2E2E2E2E2E2E2E2E2E2E2E2E2E2E2E2E2E2E2E2E2E2E2E2E2E2E2E2E2E2E2E2E2E2E2E2E2E2E2E2E2E2E2E2E2E2E2E2E2E2E2E2E2E2E2E2E2E2E2E2E2E2E2F5F5F5F5F5F5F5F5F5F5F5F5F5F5F5F5F5F5F5
310
F5F5F5F5F5F5F5F5F5F5F5F5F5F5F5F5F5F5F5F5F5F5F5F5F5F5F5F5F5F5F5F5F5F5F5F5F5F5F5F5F5F5F5F5F5F5F5F5F5F5F5F5F5F5F5F5F5F5F5F5F5F5F5F5F5F5F5F5F5F5F5F5F5F5F5F5F5F5F5F5F5F5F5F5F5F5F5F5F5F5F5F5F5F5F5F5F5F5F5F5F5F5F5F5F5F5F5F5F5F5F5F5F5F5F5F5F5F5F5F5F5F5F5F5F5F5F5
310
F5F5F5F5F5F5F5F5F5F5F5F5F5F5F5F5F5F5F5F5F5F5F5F5F5F5F5F5F5F5F5F5F5F5F5F5F5F5E2E2E2E2E2E2E2E2E2E2E2E2E2E2E2E2E2E2E2E2E2E2E2E2E2E2E2E2E2E2E2E2E2E2E2E2E2E2E2E2E2E2E2E2E2E2E2E2E2E2E2E2E2E2E2E2E2E2E2E2E2E2E2E2E2E2E2E2E2E2E2E2E2E2E2E2E2E2E2E2E2E2E2E2E2E2E2E2E2
310
E2E2E2E2E2E2E2E2E2E2E2E2E2E2E2E2E2E2E2E2E2E2E2E2E2E2E2E2E2E2E2E2E2E2E2E2E2E2E2E2E2E2E2E2E2E2E2E2E2E2E2E2E2E2E2E2E2E2E2E2E2E2E2E2E2E2E2E2E2E2E2E2E2E2E2E2E2E2E2E2E2E2E2E2E2E2E2E2E2E2E2E2E2E2E2E2E2E2E2E2E2E2E2E2E2E2E2E2E2E2E2E2E2E2E2E2E2E2E2E2E2E2E2E2E2E2E2
310
E2E2E2E2E2E2E2E2E2E2E2E2E2E2E2E2E2E2E2E2E2E2E2E2E2E2E2E2E2E2E2E2E2E2E2E2E2E2E2E2E2E2E2E2E2E2E2E2E2E2E2E2E2E2E2E2E2E2E2E2E2E2E2E2E2E2E2E2E2E2E2E2E2E2E2E2
  0
XRECORD
  5
9FF
102
{ACAD_REACTORS
330
449
102
}
330
449
100
AcDbXrecord
280
     1
102
MATERIAL
148
0.0
149
0.0
149
0.0
 93
        0
 94
      127
282
     0
 72
     0
 77
     0
171
     0
175
     0
179
     0
273
     0
  0
XRECORD
  5
44B
102
{ACAD_REACTORS
330
449
102
}
330
449
100
AcDbXrecord
280
     1
270
     1
271
     1
  0
XRECORD
  5
44A
102
{ACAD_REACTORS
330
449
102
}
330
449
100
AcDbXrecord
280
     1
270
     1
271
     1
  0
XRECORD
  5
44E
102
{ACAD_REACTORS
330
449
102
}
330
449
100
AcDbXrecord
280
     1
270
     1
271
     1
  0
XRECORD
  5
44D
102
{ACAD_REACTORS
330
449
102
}
330
449
100
AcDbXrecord
280
     1
270
     1
271
     1
  0
XRECORD
  5
44F
102
{ACAD_REACTORS
330
449
102
}
330
449
100
AcDbXrecord
280
     1
270
     1
271
     1
  0
XRECORD
  5
44C
102
{ACAD_REACTORS
330
449
102
}
330
449
100
AcDbXrecord
280
     1
270
     1
271
     1
  0
XRECORD
  5
9FE
102
{ACAD_REACTORS
330
441
102
}
330
441
100
AcDbXrecord
280
     1
102
MATERIAL
148
0.0
149
0.0
149
0.0
 93
        0
 94
      127
282
     0
 72
     0
 77
     0
171
     0
175
     0
179
     0
273
     0
  0
XRECORD
  5
443
102
{ACAD_REACTORS
330
441
102
}
330
441
100
AcDbXrecord
280
     1
270
     1
271
     1
  0
XRECORD
  5
442
102
{ACAD_REACTORS
330
441
102
}
330
441
100
AcDbXrecord
280
     1
270
     1
271
     1
  0
XRECORD
  5
446
102
{ACAD_REACTORS
330
441
102
}
330
441
100
AcDbXrecord
280
     1
270
     1
271
     1
  0
XRECORD
  5
445
102
{ACAD_REACTORS
330
441
102
}
330
441
100
AcDbXrecord
280
     1
270
     1
271
     1
  0
XRECORD
  5
447
102
{ACAD_REACTORS
330
441
102
}
330
441
100
AcDbXrecord
280
     1
270
     1
271
     1
  0
XRECORD
  5
444
102
{ACAD_REACTORS
330
441
102
}
330
441
100
AcDbXrecord
280
     1
270
     1
271
     1
  0
XRECORD
  5
A00
102
{ACAD_REACTORS
330
451
102
}
330
451
100
AcDbXrecord
280
     1
102
MATERIAL
148
0.0
149
0.0
149
0.0
 93
        0
 94
      127
282
     0
 72
     0
 77
     0
171
     0
175
     0
179
     0
273
     0
  0
XRECORD
  5
453
102
{ACAD_REACTORS
330
451
102
}
330
451
100
AcDbXrecord
280
     1
270
     1
271
     1
  0
XRECORD
  5
452
102
{ACAD_REACTORS
330
451
102
}
330
451
100
AcDbXrecord
280
     1
270
     1
271
     1
  0
XRECORD
  5
456
102
{ACAD_REACTORS
330
451
102
}
330
451
100
AcDbXrecord
280
     1
270
     1
271
     1
  0
XRECORD
  5
455
102
{ACAD_REACTORS
330
451
102
}
330
451
100
AcDbXrecord
280
     1
270
     1
271
     1
  0
XRECORD
  5
457
102
{ACAD_REACTORS
330
451
102
}
330
451
100
AcDbXrecord
280
     1
270
     1
271
     1
  0
XRECORD
  5
454
102
{ACAD_REACTORS
330
451
102
}
330
451
100
AcDbXrecord
280
     1
270
     1
271
     1
  0
CELLSTYLEMAP
  5
9D4
102
{ACAD_REACTORS
330
9D3
102
}
330
9D3
100
AcDbCellStyleMap
 90
        3
300
CELLSTYLE
  1
TABLEFORMAT_BEGIN
 90
        5
170
     1
 91
        0
 92
    32768
 62
   257
 93
        1
300
CONTENTFORMAT
  1
CONTENTFORMAT_BEGIN
 90
        0
 91
        0
 92
      512
 93
        0
300

 40
0.0
140
1.0
 94
        5
 62
     0
340
11
144
6.0
309
CONTENTFORMAT_END
171
     1
301
MARGIN
  1
CELLMARGIN_BEGIN
 40
1.5
 40
1.5
 40
1.5
 40
1.5
 40
4.5
 40
4.5
309
CELLMARGIN_END
 94
        6
 95
        1
302
GRIDFORMAT
  1
GRIDFORMAT_BEGIN
 90
        0
 91
        1
 62
     0
 92
       -2
340
0
 93
        0
 40
1.125
309
GRIDFORMAT_END
 95
        2
302
GRIDFORMAT
  1
GRIDFORMAT_BEGIN
 90
        0
 91
        1
 62
     0
 92
       -2
340
0
 93
        0
 40
1.125
309
GRIDFORMAT_END
 95
        4
302
GRIDFORMAT
  1
GRIDFORMAT_BEGIN
 90
        0
 91
        1
 62
     0
 92
       -2
340
0
 93
        0
 40
1.125
309
GRIDFORMAT_END
 95
        8
302
GRIDFORMAT
  1
GRIDFORMAT_BEGIN
 90
        0
 91
        1
 62
     0
 92
       -2
340
0
 93
        0
 40
1.125
309
GRIDFORMAT_END
 95
       16
302
GRIDFORMAT
  1
GRIDFORMAT_BEGIN
 90
        0
 91
        1
 62
     0
 92
       -2
340
0
 93
        0
 40
1.125
309
GRIDFORMAT_END
 95
       32
302
GRIDFORMAT
  1
GRIDFORMAT_BEGIN
 90
        0
 91
        1
 62
     0
 92
       -2
340
0
 93
        0
 40
1.125
309
GRIDFORMAT_END
309
TABLEFORMAT_END
  1
CELLSTYLE_BEGIN
 90
        1
 91
        1
300
_TITLE
309
CELLSTYLE_END
300
CELLSTYLE
  1
TABLEFORMAT_BEGIN
 90
        5
170
     1
 91
        0
 92
        0
 62
   257
 93
        1
300
CONTENTFORMAT
  1
CONTENTFORMAT_BEGIN
 90
        0
 91
        0
 92
      512
 93
        0
300

 40
0.0
140
1.0
 94
        5
 62
     0
340
11
144
4.5
309
CONTENTFORMAT_END
171
     1
301
MARGIN
  1
CELLMARGIN_BEGIN
 40
1.5
 40
1.5
 40
1.5
 40
1.5
 40
4.5
 40
4.5
309
CELLMARGIN_END
 94
        6
 95
        1
302
GRIDFORMAT
  1
GRIDFORMAT_BEGIN
 90
        0
 91
        1
 62
     0
 92
       -2
340
0
 93
        0
 40
1.125
309
GRIDFORMAT_END
 95
        2
302
GRIDFORMAT
  1
GRIDFORMAT_BEGIN
 90
        0
 91
        1
 62
     0
 92
       -2
340
0
 93
        0
 40
1.125
309
GRIDFORMAT_END
 95
        4
302
GRIDFORMAT
  1
GRIDFORMAT_BEGIN
 90
        0
 91
        1
 62
     0
 92
       -2
340
0
 93
        0
 40
1.125
309
GRIDFORMAT_END
 95
        8
302
GRIDFORMAT
  1
GRIDFORMAT_BEGIN
 90
        0
 91
        1
 62
     0
 92
       -2
340
0
 93
        0
 40
1.125
309
GRIDFORMAT_END
 95
       16
302
GRIDFORMAT
  1
GRIDFORMAT_BEGIN
 90
        0
 91
        1
 62
     0
 92
       -2
340
0
 93
        0
 40
1.125
309
GRIDFORMAT_END
 95
       32
302
GRIDFORMAT
  1
GRIDFORMAT_BEGIN
 90
        0
 91
        1
 62
     0
 92
       -2
340
0
 93
        0
 40
1.125
309
GRIDFORMAT_END
309
TABLEFORMAT_END
  1
CELLSTYLE_BEGIN
 90
        2
 91
        1
300
_HEADER
309
CELLSTYLE_END
300
CELLSTYLE
  1
TABLEFORMAT_BEGIN
 90
        5
170
     1
 91
        0
 92
        0
 62
   257
 93
        1
300
CONTENTFORMAT
  1
CONTENTFORMAT_BEGIN
 90
        0
 91
        0
 92
      512
 93
        0
300

 40
0.0
140
1.0
 94
        2
 62
     0
340
11
144
4.5
309
CONTENTFORMAT_END
171
     1
301
MARGIN
  1
CELLMARGIN_BEGIN
 40
1.5
 40
1.5
 40
1.5
 40
1.5
 40
4.5
 40
4.5
309
CELLMARGIN_END
 94
        6
 95
        1
302
GRIDFORMAT
  1
GRIDFORMAT_BEGIN
 90
        0
 91
        1
 62
     0
 92
       -2
340
0
 93
        0
 40
1.125
309
GRIDFORMAT_END
 95
        2
302
GRIDFORMAT
  1
GRIDFORMAT_BEGIN
 90
        0
 91
        1
 62
     0
 92
       -2
340
0
 93
        0
 40
1.125
309
GRIDFORMAT_END
 95
        4
302
GRIDFORMAT
  1
GRIDFORMAT_BEGIN
 90
        0
 91
        1
 62
     0
 92
       -2
340
0
 93
        0
 40
1.125
309
GRIDFORMAT_END
 95
        8
302
GRIDFORMAT
  1
GRIDFORMAT_BEGIN
 90
        0
 91
        1
 62
     0
 92
       -2
340
0
 93
        0
 40
1.125
309
GRIDFORMAT_END
 95
       16
302
GRIDFORMAT
  1
GRIDFORMAT_BEGIN
 90
        0
 91
        1
 62
     0
 92
       -2
340
0
 93
        0
 40
1.125
309
GRIDFORMAT_END
 95
       32
302
GRIDFORMAT
  1
GRIDFORMAT_BEGIN
 90
        0
 91
        1
 62
     0
 92
       -2
340
0
 93
        0
 40
1.125
309
GRIDFORMAT_END
309
TABLEFORMAT_END
  1
CELLSTYLE_BEGIN
 90
        3
 91
        2
300
_DATA
309
CELLSTYLE_END
  0
XRECORD
  5
A07
102
{ACAD_REACTORS
330
9D3
102
}
330
9D3
100
AcDbXrecord
280
     1
102
ACAD_ROUNDTRIP_PRE2007_TABLESTYLE
 90
      512
 91
        0
  1

 92
      512
 93
        0
  2

 94
      512
 95
        0
  3

  0
XRECORD
  5
9E7
102
{ACAD_REACTORS
330
9E6
102
}
330
9E6
100
AcDbXrecord
280
     1
102
RTVSPropertyOp0
 70
     1
102
RTVSPropertyOp1
 70
     1
102
RTVSPropertyOp2
 70
     1
102
RTVSPropertyOp3
 70
     1
102
RTVSPropertyOp4
 70
     1
102
RTVSPropertyOp5
 70
     1
102
RTVSPropertyOp6
 70
     1
102
RTVSPropertyOp7
 70
     1
102
RTVSPropertyOp8
 70
     1
102
RTVSPropertyOp9
 70
     1
102
RTVSPropertyOp10
 70
     1
102
RTVSPropertyOp11
 70
     1
102
RTVSPropertyOp12
 70
     1
102
RTVSPropertyOp13
 70
     1
102
RTVSPropertyOp14
 70
     1
102
RTVSPropertyOp15
 70
     1
102
RTVSPropertyOp16
 70
     1
102
RTVSPropertyOp17
 70
     1
102
RTVSPropertyOp18
 70
     1
102
RTVSPropertyOp19
 70
     1
102
RTVSPropertyOp20
 70
     1
102
RTVSPropertyOp21
 70
     1
102
RTVSPropertyOp22
 70
     1
102
RTVSPropertyOp23
 70
     1
102
RTVSPropertyOp24
 70
     1
102
RTVSPropertyOp25
 70
     1
102
RTVSPropertyOp26
 70
     1
102
RTVSPropertyOp27
 70
     1
  0
XRECORD
  5
9EB
102
{ACAD_REACTORS
330
9EA
102
}
330
9EA
100
AcDbXrecord
280
     1
102
RTVSPropertyOp0
 70
     1
102
RTVSPropertyOp1
 70
     1
102
RTVSPropertyOp2
 70
     1
102
RTVSPropertyOp3
 70
     1
102
RTVSPropertyOp4
 70
     1
102
RTVSPropertyOp5
 70
     1
102
RTVSPropertyOp6
 70
     1
102
RTVSPropertyOp7
 70
     1
102
RTVSPropertyOp8
 70
     1
102
RTVSPropertyOp9
 70
     1
102
RTVSPropertyOp10
 70
     1
102
RTVSPropertyOp11
 70
     1
102
RTVSPropertyOp12
 70
     1
102
RTVSPropertyOp13
 70
     1
102
RTVSPropertyOp14
 70
     1
102
RTVSPropertyOp15
 70
     1
102
RTVSPropertyOp16
 70
     1
102
RTVSPropertyOp17
 70
     1
102
RTVSPropertyOp18
 70
     1
102
RTVSPropertyOp19
 70
     1
102
RTVSPropertyOp20
 70
     1
102
RTVSPropertyOp21
 70
     1
102
RTVSPropertyOp22
 70
     1
102
RTVSPropertyOp23
 70
     1
102
RTVSPropertyOp24
 70
     1
102
RTVSPropertyOp25
 70
     1
102
RTVSPropertyOp26
 70
     1
102
RTVSPropertyOp27
 70
     1
  0
XRECORD
  5
9E9
102
{ACAD_REACTORS
330
9E8
102
}
330
9E8
100
AcDbXrecord
280
     1
102
RTVSPropertyOp0
 70
     1
102
RTVSPropertyOp1
 70
     1
102
RTVSPropertyOp2
 70
     1
102
RTVSPropertyOp3
 70
     1
102
RTVSPropertyOp4
 70
     1
102
RTVSPropertyOp5
 70
     1
102
RTVSPropertyOp6
 70
     1
102
RTVSPropertyOp7
 70
     1
102
RTVSPropertyOp8
 70
     1
102
RTVSPropertyOp9
 70
     1
102
RTVSPropertyOp10
 70
     1
102
RTVSPropertyOp11
 70
     1
102
RTVSPropertyOp12
 70
     1
102
RTVSPropertyOp13
 70
     1
102
RTVSPropertyOp14
 70
     1
102
RTVSPropertyOp15
 70
     1
102
RTVSPropertyOp16
 70
     1
102
RTVSPropertyOp17
 70
     1
102
RTVSPropertyOp18
 70
     1
102
RTVSPropertyOp19
 70
     1
102
RTVSPropertyOp20
 70
     1
102
RTVSPropertyOp21
 70
     1
102
RTVSPropertyOp22
 70
     1
102
RTVSPropertyOp23
 70
     1
102
RTVSPropertyOp24
 70
     1
102
RTVSPropertyOp25
 70
     1
102
RTVSPropertyOp26
 70
     1
102
RTVSPropertyOp27
 70
     1
  0
XRECORD
  5
9ED
102
{ACAD_REACTORS
330
9EC
102
}
330
9EC
100
AcDbXrecord
280
     1
102
RTVSPropertyOp0
 70
     1
102
RTVSPropertyOp1
 70
     1
102
RTVSPropertyOp2
 70
     1
102
RTVSPropertyOp3
 70
     1
102
RTVSPropertyOp4
 70
     1
102
RTVSPropertyOp5
 70
     1
102
RTVSPropertyOp6
 70
     1
102
RTVSPropertyOp7
 70
     1
102
RTVSPropertyOp8
 70
     1
102
RTVSPropertyOp9
 70
     1
102
RTVSPropertyOp10
 70
     1
102
RTVSPropertyOp11
 70
     1
102
RTVSPropertyOp12
 70
     1
102
RTVSPropertyOp13
 70
     1
102
RTVSPropertyOp14
 70
     1
102
RTVSPropertyOp15
 70
     1
102
RTVSPropertyOp16
 70
     1
102
RTVSPropertyOp17
 70
     1
102
RTVSPropertyOp18
 70
     1
102
RTVSPropertyOp19
 70
     1
102
RTVSPropertyOp20
 70
     1
102
RTVSPropertyOp21
 70
     1
102
RTVSPropertyOp22
 70
     1
102
RTVSPropertyOp23
 70
     1
102
RTVSPropertyOp24
 70
     1
102
RTVSPropertyOp25
 70
     1
102
RTVSPropertyOp26
 70
     1
102
RTVSPropertyOp27
 70
     1
  0
XRECORD
  5
9F5
102
{ACAD_REACTORS
330
9F4
102
}
330
9F4
100
AcDbXrecord
280
     1
102
RTVSPropertyOp0
 70
     1
102
RTVSPropertyOp1
 70
     1
102
RTVSPropertyOp2
 70
     1
102
RTVSPropertyOp3
 70
     1
102
RTVSPropertyOp4
 70
     1
102
RTVSPropertyOp5
 70
     1
102
RTVSPropertyOp6
 70
     1
102
RTVSPropertyOp7
 70
     1
102
RTVSPropertyOp8
 70
     1
102
RTVSPropertyOp9
 70
     1
102
RTVSPropertyOp10
 70
     1
102
RTVSPropertyOp11
 70
     1
102
RTVSPropertyOp12
 70
     1
102
RTVSPropertyOp13
 70
     1
102
RTVSPropertyOp14
 70
     1
102
RTVSPropertyOp15
 70
     1
102
RTVSPropertyOp16
 70
     1
102
RTVSPropertyOp17
 70
     1
102
RTVSPropertyOp18
 70
     1
102
RTVSPropertyOp19
 70
     1
102
RTVSPropertyOp20
 70
     1
102
RTVSPropertyOp21
 70
     1
102
RTVSPropertyOp22
 70
     1
102
RTVSPropertyOp23
 70
     1
102
RTVSPropertyOp24
 70
     1
102
RTVSPropertyOp25
 70
     1
102
RTVSPropertyOp26
 70
     1
102
RTVSPropertyOp27
 70
     1
  0
XRECORD
  5
9FD
102
{ACAD_REACTORS
330
9FC
102
}
330
9FC
100
AcDbXrecord
280
     1
102
RTVSPropertyOp0
 70
     1
102
RTVSPropertyOp1
 70
     1
102
RTVSPropertyOp2
 70
     1
102
RTVSPropertyOp3
 70
     1
102
RTVSPropertyOp4
 70
     1
102
RTVSPropertyOp5
 70
     1
102
RTVSPropertyOp6
 70
     1
102
RTVSPropertyOp7
 70
     1
102
RTVSPropertyOp8
 70
     1
102
RTVSPropertyOp9
 70
     1
102
RTVSPropertyOp10
 70
     1
102
RTVSPropertyOp11
 70
     1
102
RTVSPropertyOp12
 70
     1
102
RTVSPropertyOp13
 70
     1
102
RTVSPropertyOp14
 70
     1
102
RTVSPropertyOp15
 70
     1
102
RTVSPropertyOp16
 70
     1
102
RTVSPropertyOp17
 70
     1
102
RTVSPropertyOp18
 70
     1
102
RTVSPropertyOp19
 70
     1
102
RTVSPropertyOp20
 70
     1
102
RTVSPropertyOp21
 70
     1
102
RTVSPropertyOp22
 70
     1
102
RTVSPropertyOp23
 70
     1
102
RTVSPropertyOp24
 70
     1
102
RTVSPropertyOp25
 70
     1
102
RTVSPropertyOp26
 70
     1
102
RTVSPropertyOp27
 70
     1
  0
XRECORD
  5
9F1
102
{ACAD_REACTORS
330
9F0
102
}
330
9F0
100
AcDbXrecord
280
     1
102
RTVSPropertyOp0
 70
     1
102
RTVSPropertyOp1
 70
     1
102
RTVSPropertyOp2
 70
     1
102
RTVSPropertyOp3
 70
     1
102
RTVSPropertyOp4
 70
     1
102
RTVSPropertyOp5
 70
     1
102
RTVSPropertyOp6
 70
     1
102
RTVSPropertyOp7
 70
     1
102
RTVSPropertyOp8
 70
     1
102
RTVSPropertyOp9
 70
     1
102
RTVSPropertyOp10
 70
     1
102
RTVSPropertyOp11
 70
     1
102
RTVSPropertyOp12
 70
     1
102
RTVSPropertyOp13
 70
     1
102
RTVSPropertyOp14
 70
     1
102
RTVSPropertyOp15
 70
     1
102
RTVSPropertyOp16
 70
     1
102
RTVSPropertyOp17
 70
     1
102
RTVSPropertyOp18
 70
     1
102
RTVSPropertyOp19
 70
     1
102
RTVSPropertyOp20
 70
     1
102
RTVSPropertyOp21
 70
     1
102
RTVSPropertyOp22
 70
     1
102
RTVSPropertyOp23
 70
     1
102
RTVSPropertyOp24
 70
     1
102
RTVSPropertyOp25
 70
     1
102
RTVSPropertyOp26
 70
     1
102
RTVSPropertyOp27
 70
     1
  0
XRECORD
  5
9F3
102
{ACAD_REACTORS
330
9F2
102
}
330
9F2
100
AcDbXrecord
280
     1
102
RTVSPropertyOp0
 70
     1
102
RTVSPropertyOp1
 70
     1
102
RTVSPropertyOp2
 70
     1
102
RTVSPropertyOp3
 70
     1
102
RTVSPropertyOp4
 70
     1
102
RTVSPropertyOp5
 70
     1
102
RTVSPropertyOp6
 70
     1
102
RTVSPropertyOp7
 70
     1
102
RTVSPropertyOp8
 70
     1
102
RTVSPropertyOp9
 70
     1
102
RTVSPropertyOp10
 70
     1
102
RTVSPropertyOp11
 70
     1
102
RTVSPropertyOp12
 70
     1
102
RTVSPropertyOp13
 70
     1
102
RTVSPropertyOp14
 70
     1
102
RTVSPropertyOp15
 70
     1
102
RTVSPropertyOp16
 70
     1
102
RTVSPropertyOp17
 70
     1
102
RTVSPropertyOp18
 70
     1
102
RTVSPropertyOp19
 70
     1
102
RTVSPropertyOp20
 70
     1
102
RTVSPropertyOp21
 70
     1
102
RTVSPropertyOp22
 70
     1
102
RTVSPropertyOp23
 70
     1
102
RTVSPropertyOp24
 70
     1
102
RTVSPropertyOp25
 70
     1
102
RTVSPropertyOp26
 70
     1
102
RTVSPropertyOp27
 70
     1
  0
XRECORD
  5
A06
102
{ACAD_REACTORS
330
A05
102
}
330
A05
100
AcDbXrecord
280
     1
102
RTVSPropertyOp0
 70
     0
102
RTVSPropertyOp1
 70
     0
102
RTVSPropertyOp2
 70
     0
102
RTVSPropertyOp3
 70
     0
102
RTVSPropertyOp4
 70
     0
102
RTVSPropertyOp5
 70
     0
102
RTVSPropertyOp6
 70
     0
102
RTVSPropertyOp7
 70
     0
102
RTVSPropertyOp8
 70
     0
102
RTVSPropertyOp9
 70
     0
102
RTVSPropertyOp10
 70
     0
102
RTVSPropertyOp11
 70
     0
102
RTVSPropertyOp12
 70
     0
102
RTVSPropertyOp13
 70
     0
102
RTVSPropertyOp14
 70
     2
102
RTVSPropertyOp15
 70
     0
102
RTVSPropertyOp16
 70
     0
102
RTVSPropertyOp17
 70
     0
102
RTVSPropertyOp18
 70
     0
102
RTVSPropertyOp19
 70
     0
102
RTVSPropertyOp20
 70
     0
102
RTVSPropertyOp21
 70
     0
102
RTVSPropertyOp22
 70
     0
102
RTVSPropertyOp23
 70
     0
102
RTVSPropertyOp24
 70
     0
102
RTVSPropertyOp25
 70
     0
102
RTVSPropertyOp26
 70
     0
102
RTVSPropertyOp27
 70
     0
  0
XRECORD
  5
9FB
102
{ACAD_REACTORS
330
9FA
102
}
330
9FA
100
AcDbXrecord
280
     1
102
RTVSPropertyOp0
 70
     1
102
RTVSPropertyOp1
 70
     1
102
RTVSPropertyOp2
 70
     1
102
RTVSPropertyOp3
 70
     1
102
RTVSPropertyOp4
 70
     1
102
RTVSPropertyOp5
 70
     1
102
RTVSPropertyOp6
 70
     1
102
RTVSPropertyOp7
 70
     1
102
RTVSPropertyOp8
 70
     1
102
RTVSPropertyOp9
 70
     1
102
RTVSPropertyOp10
 70
     1
102
RTVSPropertyOp11
 70
     1
102
RTVSPropertyOp12
 70
     1
102
RTVSPropertyOp13
 70
     1
102
RTVSPropertyOp14
 70
     1
102
RTVSPropertyOp15
 70
     1
102
RTVSPropertyOp16
 70
     1
102
RTVSPropertyOp17
 70
     1
102
RTVSPropertyOp18
 70
     1
102
RTVSPropertyOp19
 70
     1
102
RTVSPropertyOp20
 70
     1
102
RTVSPropertyOp21
 70
     1
102
RTVSPropertyOp22
 70
     1
102
RTVSPropertyOp23
 70
     1
102
RTVSPropertyOp24
 70
     1
102
RTVSPropertyOp25
 70
     1
102
RTVSPropertyOp26
 70
     1
102
RTVSPropertyOp27
 70
     1
  0
XRECORD
  5
9DF
102
{ACAD_REACTORS
330
9DE
102
}
330
9DE
100
AcDbXrecord
280
     1
102
RTVSPropertyOp0
 70
     1
102
RTVSPropertyOp1
 70
     1
102
RTVSPropertyOp2
 70
     1
102
RTVSPropertyOp3
 70
     1
102
RTVSPropertyOp4
 70
     1
102
RTVSPropertyOp5
 70
     1
102
RTVSPropertyOp6
 70
     1
102
RTVSPropertyOp7
 70
     1
102
RTVSPropertyOp8
 70
     1
102
RTVSPropertyOp9
 70
     1
102
RTVSPropertyOp10
 70
     1
102
RTVSPropertyOp11
 70
     1
102
RTVSPropertyOp12
 70
     1
102
RTVSPropertyOp13
 70
     1
102
RTVSPropertyOp14
 70
     1
102
RTVSPropertyOp15
 70
     1
102
RTVSPropertyOp16
 70
     1
102
RTVSPropertyOp17
 70
     1
102
RTVSPropertyOp18
 70
     1
102
RTVSPropertyOp19
 70
     1
102
RTVSPropertyOp20
 70
     1
102
RTVSPropertyOp21
 70
     1
102
RTVSPropertyOp22
 70
     1
102
RTVSPropertyOp23
 70
     1
102
RTVSPropertyOp24
 70
     1
102
RTVSPropertyOp25
 70
     1
102
RTVSPropertyOp26
 70
     1
102
RTVSPropertyOp27
 70
     1
  0
XRECORD
  5
9E1
102
{ACAD_REACTORS
330
9E0
102
}
330
9E0
100
AcDbXrecord
280
     1
102
RTVSPropertyOp0
 70
     1
102
RTVSPropertyOp1
 70
     1
102
RTVSPropertyOp2
 70
     1
102
RTVSPropertyOp3
 70
     1
102
RTVSPropertyOp4
 70
     1
102
RTVSPropertyOp5
 70
     1
102
RTVSPropertyOp6
 70
     1
102
RTVSPropertyOp7
 70
     1
102
RTVSPropertyOp8
 70
     1
102
RTVSPropertyOp9
 70
     1
102
RTVSPropertyOp10
 70
     1
102
RTVSPropertyOp11
 70
     1
102
RTVSPropertyOp12
 70
     1
102
RTVSPropertyOp13
 70
     1
102
RTVSPropertyOp14
 70
     1
102
RTVSPropertyOp15
 70
     1
102
RTVSPropertyOp16
 70
     1
102
RTVSPropertyOp17
 70
     1
102
RTVSPropertyOp18
 70
     1
102
RTVSPropertyOp19
 70
     1
102
RTVSPropertyOp20
 70
     1
102
RTVSPropertyOp21
 70
     1
102
RTVSPropertyOp22
 70
     1
102
RTVSPropertyOp23
 70
     1
102
RTVSPropertyOp24
 70
     1
102
RTVSPropertyOp25
 70
     1
102
RTVSPropertyOp26
 70
     1
102
RTVSPropertyOp27
 70
     1
  0
XRECORD
  5
9E3
102
{ACAD_REACTORS
330
9E2
102
}
330
9E2
100
AcDbXrecord
280
     1
102
RTVSPropertyOp0
 70
     1
102
RTVSPropertyOp1
 70
     1
102
RTVSPropertyOp2
 70
     1
102
RTVSPropertyOp3
 70
     1
102
RTVSPropertyOp4
 70
     1
102
RTVSPropertyOp5
 70
     1
102
RTVSPropertyOp6
 70
     1
102
RTVSPropertyOp7
 70
     1
102
RTVSPropertyOp8
 70
     1
102
RTVSPropertyOp9
 70
     1
102
RTVSPropertyOp10
 70
     1
102
RTVSPropertyOp11
 70
     1
102
RTVSPropertyOp12
 70
     1
102
RTVSPropertyOp13
 70
     1
102
RTVSPropertyOp14
 70
     1
102
RTVSPropertyOp15
 70
     1
102
RTVSPropertyOp16
 70
     1
102
RTVSPropertyOp17
 70
     1
102
RTVSPropertyOp18
 70
     1
102
RTVSPropertyOp19
 70
     1
102
RTVSPropertyOp20
 70
     1
102
RTVSPropertyOp21
 70
     1
102
RTVSPropertyOp22
 70
     1
102
RTVSPropertyOp23
 70
     1
102
RTVSPropertyOp24
 70
     1
102
RTVSPropertyOp25
 70
     1
102
RTVSPropertyOp26
 70
     1
102
RTVSPropertyOp27
 70
     1
  0
XRECORD
  5
9E5
102
{ACAD_REACTORS
330
9E4
102
}
330
9E4
100
AcDbXrecord
280
     1
102
RTVSPropertyOp0
 70
     1
102
RTVSPropertyOp1
 70
     1
102
RTVSPropertyOp2
 70
     1
102
RTVSPropertyOp3
 70
     1
102
RTVSPropertyOp4
 70
     1
102
RTVSPropertyOp5
 70
     1
102
RTVSPropertyOp6
 70
     1
102
RTVSPropertyOp7
 70
     1
102
RTVSPropertyOp8
 70
     1
102
RTVSPropertyOp9
 70
     1
102
RTVSPropertyOp10
 70
     1
102
RTVSPropertyOp11
 70
     1
102
RTVSPropertyOp12
 70
     1
102
RTVSPropertyOp13
 70
     1
102
RTVSPropertyOp14
 70
     1
102
RTVSPropertyOp15
 70
     1
102
RTVSPropertyOp16
 70
     1
102
RTVSPropertyOp17
 70
     1
102
RTVSPropertyOp18
 70
     1
102
RTVSPropertyOp19
 70
     1
102
RTVSPropertyOp20
 70
     1
102
RTVSPropertyOp21
 70
     1
102
RTVSPropertyOp22
 70
     1
102
RTVSPropertyOp23
 70
     1
102
RTVSPropertyOp24
 70
     1
102
RTVSPropertyOp25
 70
     1
102
RTVSPropertyOp26
 70
     1
102
RTVSPropertyOp27
 70
     1
  0
XRECORD
  5
A02
102
{ACAD_REACTORS
330
A01
102
}
330
A01
100
AcDbXrecord
280
     1
102
RTVSPropertyOp0
 70
     0
102
RTVSPropertyOp1
 70
     0
102
RTVSPropertyOp2
 70
     0
102
RTVSPropertyOp3
 70
     0
102
RTVSPropertyOp4
 70
     0
102
RTVSPropertyOp5
 70
     0
102
RTVSPropertyOp6
 70
     0
102
RTVSPropertyOp7
 70
     0
102
RTVSPropertyOp8
 70
     0
102
RTVSPropertyOp9
 70
     0
102
RTVSPropertyOp10
 70
     0
102
RTVSPropertyOp11
 70
     0
102
RTVSPropertyOp12
 70
     0
102
RTVSPropertyOp13
 70
     0
102
RTVSPropertyOp14
 70
     2
102
RTVSPropertyOp15
 70
     0
102
RTVSPropertyOp16
 70
     0
102
RTVSPropertyOp17
 70
     0
102
RTVSPropertyOp18
 70
     0
102
RTVSPropertyOp19
 70
     0
102
RTVSPropertyOp20
 70
     0
102
RTVSPropertyOp21
 70
     0
102
RTVSPropertyOp22
 70
     0
102
RTVSPropertyOp23
 70
     0
102
RTVSPropertyOp24
 70
     0
102
RTVSPropertyOp25
 70
     0
102
RTVSPropertyOp26
 70
     0
102
RTVSPropertyOp27
 70
     0
  0
XRECORD
  5
9F9
102
{ACAD_REACTORS
330
9F8
102
}
330
9F8
100
AcDbXrecord
280
     1
102
RTVSPropertyOp0
 70
     1
102
RTVSPropertyOp1
 70
     1
102
RTVSPropertyOp2
 70
     1
102
RTVSPropertyOp3
 70
     1
102
RTVSPropertyOp4
 70
     1
102
RTVSPropertyOp5
 70
     1
102
RTVSPropertyOp6
 70
     1
102
RTVSPropertyOp7
 70
     1
102
RTVSPropertyOp8
 70
     1
102
RTVSPropertyOp9
 70
     1
102
RTVSPropertyOp10
 70
     1
102
RTVSPropertyOp11
 70
     1
102
RTVSPropertyOp12
 70
     1
102
RTVSPropertyOp13
 70
     1
102
RTVSPropertyOp14
 70
     1
102
RTVSPropertyOp15
 70
     1
102
RTVSPropertyOp16
 70
     1
102
RTVSPropertyOp17
 70
     1
102
RTVSPropertyOp18
 70
     1
102
RTVSPropertyOp19
 70
     1
102
RTVSPropertyOp20
 70
     1
102
RTVSPropertyOp21
 70
     1
102
RTVSPropertyOp22
 70
     1
102
RTVSPropertyOp23
 70
     1
102
RTVSPropertyOp24
 70
     1
102
RTVSPropertyOp25
 70
     1
102
RTVSPropertyOp26
 70
     1
102
RTVSPropertyOp27
 70
     1
  0
XRECORD
  5
A04
102
{ACAD_REACTORS
330
A03
102
}
330
A03
100
AcDbXrecord
280
     1
102
RTVSPropertyOp0
 70
     0
102
RTVSPropertyOp1
 70
     0
102
RTVSPropertyOp2
 70
     0
102
RTVSPropertyOp3
 70
     0
102
RTVSPropertyOp4
 70
     0
102
RTVSPropertyOp5
 70
     0
102
RTVSPropertyOp6
 70
     0
102
RTVSPropertyOp7
 70
     0
102
RTVSPropertyOp8
 70
     0
102
RTVSPropertyOp9
 70
     0
102
RTVSPropertyOp10
 70
     0
102
RTVSPropertyOp11
 70
     0
102
RTVSPropertyOp12
 70
     0
102
RTVSPropertyOp13
 70
     0
102
RTVSPropertyOp14
 70
     2
102
RTVSPropertyOp15
 70
     0
102
RTVSPropertyOp16
 70
     0
102
RTVSPropertyOp17
 70
     0
102
RTVSPropertyOp18
 70
     0
102
RTVSPropertyOp19
 70
     0
102
RTVSPropertyOp20
 70
     0
102
RTVSPropertyOp21
 70
     0
102
RTVSPropertyOp22
 70
     0
102
RTVSPropertyOp23
 70
     0
102
RTVSPropertyOp24
 70
     0
102
RTVSPropertyOp25
 70
     0
102
RTVSPropertyOp26
 70
     0
102
RTVSPropertyOp27
 70
     0
  0
XRECORD
  5
9EF
102
{ACAD_REACTORS
330
9EE
102
}
330
9EE
100
AcDbXrecord
280
     1
102
RTVSPropertyOp0
 70
     1
102
RTVSPropertyOp1
 70
     1
102
RTVSPropertyOp2
 70
     1
102
RTVSPropertyOp3
 70
     1
102
RTVSPropertyOp4
 70
     1
102
RTVSPropertyOp5
 70
     1
102
RTVSPropertyOp6
 70
     1
102
RTVSPropertyOp7
 70
     1
102
RTVSPropertyOp8
 70
     1
102
RTVSPropertyOp9
 70
     1
102
RTVSPropertyOp10
 70
     1
102
RTVSPropertyOp11
 70
     1
102
RTVSPropertyOp12
 70
     1
102
RTVSPropertyOp13
 70
     1
102
RTVSPropertyOp14
 70
     1
102
RTVSPropertyOp15
 70
     1
102
RTVSPropertyOp16
 70
     1
102
RTVSPropertyOp17
 70
     1
102
RTVSPropertyOp18
 70
     1
102
RTVSPropertyOp19
 70
     1
102
RTVSPropertyOp20
 70
     1
102
RTVSPropertyOp21
 70
     1
102
RTVSPropertyOp22
 70
     1
102
RTVSPropertyOp23
 70
     1
102
RTVSPropertyOp24
 70
     1
102
RTVSPropertyOp25
 70
     1
102
RTVSPropertyOp26
 70
     1
102
RTVSPropertyOp27
 70
     1
  0
XRECORD
  5
9F7
102
{ACAD_REACTORS
330
9F6
102
}
330
9F6
100
AcDbXrecord
280
     1
102
RTVSPropertyOp0
 70
     1
102
RTVSPropertyOp1
 70
     1
102
RTVSPropertyOp2
 70
     1
102
RTVSPropertyOp3
 70
     1
102
RTVSPropertyOp4
 70
     1
102
RTVSPropertyOp5
 70
     1
102
RTVSPropertyOp6
 70
     1
102
RTVSPropertyOp7
 70
     1
102
RTVSPropertyOp8
 70
     1
102
RTVSPropertyOp9
 70
     1
102
RTVSPropertyOp10
 70
     1
102
RTVSPropertyOp11
 70
     1
102
RTVSPropertyOp12
 70
     1
102
RTVSPropertyOp13
 70
     1
102
RTVSPropertyOp14
 70
     1
102
RTVSPropertyOp15
 70
     1
102
RTVSPropertyOp16
 70
     1
102
RTVSPropertyOp17
 70
     1
102
RTVSPropertyOp18
 70
     1
102
RTVSPropertyOp19
 70
     1
102
RTVSPropertyOp20
 70
     1
102
RTVSPropertyOp21
 70
     1
102
RTVSPropertyOp22
 70
     1
102
RTVSPropertyOp23
 70
     1
102
RTVSPropertyOp24
 70
     1
102
RTVSPropertyOp25
 70
     1
102
RTVSPropertyOp26
 70
     1
102
RTVSPropertyOp27
 70
     1
  0
ENDSEC
  0
EOF
