  0
SECTION
  2
HEADER
  9
$ACADVER
  1
AC1015
  9
$ACADMAINTVER
 70
     6
  9
$DWGCODEPAGE
  3
ANSI_1252
  9
$INSBASE
 10
0.0
 20
0.0
 30
0.0
  9
$EXTMIN
 10
0.0
 20
0.0
 30
0.0
  9
$EXTMAX
 10
279.4
 20
215.9
 30
0.0
  9
$LIMMIN
 10
0.0
 20
0.0
  9
$LIMMAX
 10
279.4
 20
215.9
  9
$ORTHOMODE
 70
     0
  9
$REGENMODE
 70
     1
  9
$FILLMODE
 70
     1
  9
$QTEXTMODE
 70
     0
  9
$MIRRTEXT
 70
     1
  9
$LTSCALE
 40
1.0
  9
$ATTMODE
 70
     1
  9
$TEXTSIZE
 40
3.5277777778
  9
$TRACEWID
 40
1.0
  9
$TEXTSTYLE
  7
Standard
  9
$CLAYER
  8
0
  9
$CELTYPE
  6
ByLayer
  9
$CECOLOR
 62
   256
  9
$CELTSCALE
 40
1.0
  9
$DISPSILH
 70
     0
  9
$DIMSCALE
 40
1.0
  9
$DIMASZ
 40
2.8251505534
  9
$DIMEXO
 40
1.27
  9
$DIMDLI
 40
3.75
  9
$DIMRND
 40
0.0
  9
$DIMDLE
 40
0.0
  9
$DIMEXE
 40
3.175
  9
$DIMTP
 40
0.0
  9
$DIMTM
 40
0.0
  9
$DIMTXT
 40
3.5277777778
  9
$DIMCEN
 40
2.5
  9
$DIMTSZ
 40
0.0
  9
$DIMTOL
 70
     0
  9
$DIMLIM
 70
     0
  9
$DIMTIH
 70
     1
  9
$DIMTOH
 70
     1
  9
$DIMSE1
 70
     0
  9
$DIMSE2
 70
     0
  9
$DIMTAD
 70
     0
  9
$DIMZIN
 70
     1
  9
$DIMBLK
  1

  9
$DIMASO
 70
     1
  9
$DIMSHO
 70
     1
  9
$DIMPOST
  1

  9
$DIMAPOST
  1

  9
$DIMALT
 70
     0
  9
$DIMALTD
 70
     3
  9
$DIMALTF
 40
0.0393700787
  9
$DIMLFAC
 40
0.1
  9
$DIMTOFL
 70
     1
  9
$DIMTVP
 40
0.0
  9
$DIMTIX
 70
     0
  9
$DIMSOXD
 70
     0
  9
$DIMSAH
 70
     0
  9
$DIMBLK1
  1

  9
$DIMBLK2
  1

  9
$DIMSTYLE
  2
ISO-25
  9
$DIMCLRD
 70
     0
  9
$DIMCLRE
 70
     0
  9
$DIMCLRT
 70
     0
  9
$DIMTFAC
 40
1.0
  9
$DIMGAP
 40
1.524
  9
$DIMJUST
 70
     0
  9
$DIMSD1
 70
     0
  9
$DIMSD2
 70
     0
  9
$DIMTOLJ
 70
     0
  9
$DIMTZIN
 70
     1
  9
$DIMALTZ
 70
     0
  9
$DIMALTTZ
 70
     0
  9
$DIMUPT
 70
     0
  9
$DIMDEC
 70
     2
  9
$DIMTDEC
 70
     2
  9
$DIMALTU
 70
     2
  9
$DIMALTTD
 70
     3
  9
$DIMTXSTY
  7
Standard
  9
$DIMAUNIT
 70
     0
  9
$DIMADEC
 70
     2
  9
$DIMALTRND
 40
0.0
  9
$DIMAZIN
 70
     0
  9
$DIMDSEP
 70
    44
  9
$DIMATFIT
 70
     3
  9
$DIMFRAC
 70
     0
  9
$DIMLDRBLK
  1

  9
$DIMLUNIT
 70
     2
  9
$DIMLWD
 70
    -2
  9
$DIMLWE
 70
    -2
  9
$DIMTMOVE
 70
     0
  9
$LUNITS
 70
     2
  9
$LUPREC
 70
     2
  9
$SKETCHINC
 40
1.0
  9
$FILLETRAD
 40
10.0
  9
$AUNITS
 70
     0
  9
$AUPREC
 70
     2
  9
$MENU
  1
.
  9
$ELEVATION
 40
0.0
  9
$PELEVATION
 40
0.0
  9
$THICKNESS
 40
0.0
  9
$LIMCHECK
 70
     0
  9
$CHAMFERA
 40
0.0
  9
$CHAMFERB
 40
0.0
  9
$CHAMFERC
 40
0.0
  9
$CHAMFERD
 40
0.0
  9
$SKPOLY
 70
     0
  9
$TDCREATE
 40
2458048.526196586
  9
$TDUCREATE
 40
2458048.817863252
  9
$TDUPDATE
 40
2458048.526202361
  9
$TDUUPDATE
 40
2458048.817869028
  9
$TDINDWG
 40
0.0000000116
  9
$TDUSRTIMER
 40
0.0000000116
  9
$USRTIMER
 70
     1
  9
$ANGBASE
 50
0.0
  9
$ANGDIR
 70
     0
  9
$PDMODE
 70
     0
  9
$PDSIZE
 40
-1.0
  9
$PLINEWID
 40
0.0
  9
$SPLFRAME
 70
     0
  9
$SPLINETYPE
 70
     6
  9
$SPLINESEGS
 70
     8
  9
$HANDSEED
  5
247
  9
$SURFTAB1
 70
     6
  9
$SURFTAB2
 70
     6
  9
$SURFTYPE
 70
     6
  9
$SURFU
 70
     6
  9
$SURFV
 70
     6
  9
$UCSBASE
  2

  9
$UCSNAME
  2

  9
$UCSORG
 10
0.0
 20
0.0
 30
0.0
  9
$UCSXDIR
 10
1.0
 20
0.0
 30
0.0
  9
$UCSYDIR
 10
0.0
 20
1.0
 30
0.0
  9
$UCSORTHOREF
  2

  9
$UCSORTHOVIEW
 70
     0
  9
$UCSORGTOP
 10
0.0
 20
0.0
 30
0.0
  9
$UCSORGBOTTOM
 10
0.0
 20
0.0
 30
0.0
  9
$UCSORGLEFT
 10
0.0
 20
0.0
 30
0.0
  9
$UCSORGRIGHT
 10
0.0
 20
0.0
 30
0.0
  9
$UCSORGFRONT
 10
0.0
 20
0.0
 30
0.0
  9
$UCSORGBACK
 10
0.0
 20
0.0
 30
0.0
  9
$PUCSBASE
  2

  9
$PUCSNAME
  2

  9
$PUCSORG
 10
0.0
 20
0.0
 30
0.0
  9
$PUCSXDIR
 10
1.0
 20
0.0
 30
0.0
  9
$PUCSYDIR
 10
0.0
 20
1.0
 30
0.0
  9
$PUCSORTHOREF
  2

  9
$PUCSORTHOVIEW
 70
     0
  9
$PUCSORGTOP
 10
0.0
 20
0.0
 30
0.0
  9
$PUCSORGBOTTOM
 10
0.0
 20
0.0
 30
0.0
  9
$PUCSORGLEFT
 10
0.0
 20
0.0
 30
0.0
  9
$PUCSORGRIGHT
 10
0.0
 20
0.0
 30
0.0
  9
$PUCSORGFRONT
 10
0.0
 20
0.0
 30
0.0
  9
$PUCSORGBACK
 10
0.0
 20
0.0
 30
0.0
  9
$USERI1
 70
     0
  9
$USERI2
 70
     0
  9
$USERI3
 70
     0
  9
$USERI4
 70
     0
  9
$USERI5
 70
     0
  9
$USERR1
 40
0.0
  9
$USERR2
 40
0.0
  9
$USERR3
 40
0.0
  9
$USERR4
 40
0.0
  9
$USERR5
 40
0.0
  9
$WORLDVIEW
 70
     1
  9
$SHADEDGE
 70
     3
  9
$SHADEDIF
 70
    70
  9
$TILEMODE
 70
     1
  9
$MAXACTVP
 70
    64
  9
$PINSBASE
 10
0.0
 20
0.0
 30
0.0
  9
$PLIMCHECK
 70
     0
  9
$PEXTMIN
 10
1.0000000000E+20
 20
1.0000000000E+20
 30
1.0000000000E+20
  9
$PEXTMAX
 10
-1.0000000000E+20
 20
-1.0000000000E+20
 30
-1.0000000000E+20
  9
$PLIMMIN
 10
0.0
 20
0.0
  9
$PLIMMAX
 10
420.0
 20
297.0
  9
$UNITMODE
 70
     0
  9
$VISRETAIN
 70
     1
  9
$PLINEGEN
 70
     0
  9
$PSLTSCALE
 70
     1
  9
$TREEDEPTH
 70
  3020
  9
$CMLSTYLE
  2
Standard
  9
$CMLJUST
 70
     0
  9
$CMLSCALE
 40
20.0
  9
$PROXYGRAPHICS
 70
     1
  9
$MEASUREMENT
 70
     1
  9
$CELWEIGHT
370
    -1
  9
$ENDCAPS
280
     0
  9
$JOINSTYLE
280
     0
  9
$LWDISPLAY
290
     1
  9
$INSUNITS
 70
     4
  9
$HYPERLINKBASE
  1

  9
$STYLESHEET
  1

  9
$XEDIT
290
     1
  9
$CEPSNTYPE
380
     0
  9
$PSTYLEMODE
290
     1
  9
$FINGERPRINTGUID
  2
{3739D707-08A6-4879-89A5-3758E2527668}
  9
$VERSIONGUID
  2
{FAEB1C32-E019-11D5-929B-00C0DF256EC4}
  9
$EXTNAMES
290
     1
  9
$PSVPSCALE
 40
0.0
  9
$OLESTARTUP
290
     0
  0
ENDSEC
  0
SECTION
  2
CLASSES
  0
CLASS
  1
ACDBDICTIONARYWDFLT
  2
AcDbDictionaryWithDefault
  3
ObjectDBX Classes
 90
        0
280
     0
281
     0
  0
CLASS
  1
VISUALSTYLE
  2
AcDbVisualStyle
  3
ObjectDBX Classes
 90
     4095
280
     0
281
     0
  0
CLASS
  1
MATERIAL
  2
AcDbMaterial
  3
ObjectDBX Classes
 90
     1153
280
     0
281
     0
  0
CLASS
  1
SCALE
  2
AcDbScale
  3
ObjectDBX Classes
 90
     1153
280
     0
281
     0
  0
CLASS
  1
TABLESTYLE
  2
AcDbTableStyle
  3
ObjectDBX Classes
 90
     4095
280
     0
281
     0
  0
CLASS
  1
MLEADERSTYLE
  2
AcDbMLeaderStyle
  3
ACDB_MLEADERSTYLE_CLASS
 90
     4095
280
     0
281
     0
  0
CLASS
  1
SUN
  2
AcDbSun
  3
SCENEOE
 90
     1153
280
     0
281
     0
  0
CLASS
  1
ACDBPLACEHOLDER
  2
AcDbPlaceHolder
  3
ObjectDBX Classes
 90
        0
280
     0
281
     0
  0
CLASS
  1
LAYOUT
  2
AcDbLayout
  3
ObjectDBX Classes
 90
        0
280
     0
281
     0
  0
ENDSEC
  0
SECTION
  2
TABLES
  0
TABLE
  2
VPORT
  5
8
330
0
100
AcDbSymbolTable
 70
     1
  0
VPORT
  5
29
330
8
100
AcDbSymbolTableRecord
100
AcDbViewportTableRecord
  2
*Active
 70
     0
 10
0.0
 20
0.0
 11
1.0
 21
1.0
 12
139.7
 22
107.95
 13
0.0
 23
0.0
 14
10.0
 24
10.0
 15
10.0
 25
10.0
 16
0.0
 26
0.0
 36
1.0
 17
0.0
 27
0.0
 37
0.0
 40
215.9
 41
1.2941176471
 42
50.0
 43
0.0
 44
0.0
 50
0.0
 51
0.0
 71
     0
 72
  2000
 73
     1
 74
     3
 75
     0
 76
     0
 77
     0
 78
     0
281
     0
 65
     1
110
0.0
120
0.0
130
0.0
111
1.0
121
0.0
131
0.0
112
0.0
122
1.0
132
0.0
 79
     0
146
0.0
  0
ENDTAB
  0
TABLE
  2
LTYPE
  5
5
330
0
100
AcDbSymbolTable
 70
     6
  0
LTYPE
  5
14
330
5
100
AcDbSymbolTableRecord
100
AcDbLinetypeTableRecord
  2
ByBlock
 70
     0
  3

 72
    65
 73
     0
 40
0.0
  0
LTYPE
  5
15
330
5
100
AcDbSymbolTableRecord
100
AcDbLinetypeTableRecord
  2
ByLayer
 70
     0
  3

 72
    65
 73
     0
 40
0.0
  0
LTYPE
  5
16
330
5
100
AcDbSymbolTableRecord
100
AcDbLinetypeTableRecord
  2
Continuous
 70
     0
  3
Solid line
 72
    65
 73
     0
 40
0.0
  0
LTYPE
  5
6E
330
5
100
AcDbSymbolTableRecord
100
AcDbLinetypeTableRecord
  2
HIDDEN
 70
     0
  3
Hidden __ __ __ __ __ __ __ __ __ __ __ __ __ __
 72
    65
 73
     2
 40
1.905
 49
1.27
 74
     0
 49
-0.635
 74
     0
  0
LTYPE
  5
6F
330
5
100
AcDbSymbolTableRecord
100
AcDbLinetypeTableRecord
  2
PHANTOM
 70
     0
  3
Phantom ______  __  __  ______  __  __  ______
 72
    65
 73
     6
 40
12.7
 49
6.35
 74
     0
 49
-1.27
 74
     0
 49
1.27
 74
     0
 49
-1.27
 74
     0
 49
1.27
 74
     0
 49
-1.27
 74
     0
  0
LTYPE
  5
70
330
5
100
AcDbSymbolTableRecord
100
AcDbLinetypeTableRecord
  2
CENTER
 70
     0
  3
Center ____ _ ____ _ ____ _ ____ _ ____ _ ____
 72
    65
 73
     4
 40
10.16
 49
6.35
 74
     0
 49
-1.27
 74
     0
 49
1.27
 74
     0
 49
-1.27
 74
     0
  0
LTYPE
  5
71
330
5
100
AcDbSymbolTableRecord
100
AcDbLinetypeTableRecord
  2
CENTERX2
 70
     0
  3
Center (2x) ________  __  ________  __  _____
 72
    65
 73
     4
 40
20.32
 49
12.7
 74
     0
 49
-2.54
 74
     0
 49
2.54
 74
     0
 49
-2.54
 74
     0
  0
LTYPE
  5
72
330
5
100
AcDbSymbolTableRecord
100
AcDbLinetypeTableRecord
  2
DOT2
 70
     0
  3
Dot (.5x) ........................................
 72
    65
 73
     2
 40
0.635
 49
0.0
 74
     0
 49
-0.635
 74
     0
  0
ENDTAB
  0
TABLE
  2
LAYER
  5
2
330
0
100
AcDbSymbolTable
 70
     4
  0
LAYER
  5
10
330
2
100
AcDbSymbolTableRecord
100
AcDbLayerTableRecord
  2
0
 70
     0
 62
     7
  6
Continuous
370
    -3
390
F
  0
LAYER
  5
73
330
2
100
AcDbSymbolTableRecord
100
AcDbLayerTableRecord
  2
FORMAT
 70
     0
 62
     7
  6
Continuous
370
    -3
390
F
  0
LAYER
  5
74
330
2
100
AcDbSymbolTableRecord
100
AcDbLayerTableRecord
  2
DIMENSIONS
 70
     0
 62
     5
  6
Continuous
370
    -3
390
F
  0
LAYER
  5
75
330
2
100
AcDbSymbolTableRecord
100
AcDbLayerTableRecord
  2
NOTES
 70
     0
 62
     7
  6
Continuous
370
    -3
390
F
  0
ENDTAB
  0
TABLE
  2
STYLE
  5
3
330
0
100
AcDbSymbolTable
 70
     4
  0
STYLE
  5
11
330
3
100
AcDbSymbolTableRecord
100
AcDbTextStyleTableRecord
  2
Standard
 70
     0
 40
0.0
 41
1.0
 50
0.0
 71
     0
 42
3.5277777778
  3
txt
  4

  0
STYLE
  5
10E
330
3
100
AcDbSymbolTableRecord
100
AcDbTextStyleTableRecord
  2
SLDTEXTSTYLE0
 70
     0
 40
0.0
 41
0.605
 50
0.0
 71
     0
 42
3.5277777778
  3
TXT
  4

  0
STYLE
  5
120
330
3
100
AcDbSymbolTableRecord
100
AcDbTextStyleTableRecord
  2
SLDTEXTSTYLE1
 70
     0
 40
0.0
 41
0.6385967368
 50
0.0
 71
     0
 42
3.5277777778
  3
TXT
  4

  0
STYLE
  5
122
330
3
100
AcDbSymbolTableRecord
100
AcDbTextStyleTableRecord
  2
SLDTEXTSTYLE2
 70
     0
 40
0.0
 41
0.7368421053
 50
0.0
 71
     0
 42
3.5277777778
  3
TXT
  4

  0
ENDTAB
  0
TABLE
  2
VIEW
  5
6
330
0
100
AcDbSymbolTable
 70
     0
  0
ENDTAB
  0
TABLE
  2
UCS
  5
7
330
0
100
AcDbSymbolTable
 70
     0
  0
ENDTAB
  0
TABLE
  2
APPID
  5
9
330
0
100
AcDbSymbolTable
 70
     1
  0
APPID
  5
12
330
9
100
AcDbSymbolTableRecord
100
AcDbRegAppTableRecord
  2
ACAD
 70
     0
  0
ENDTAB
  0
TABLE
  2
DIMSTYLE
  5
A
330
0
100
AcDbSymbolTable
 70
     1
100
AcDbDimStyleTable
  0
DIMSTYLE
105
27
330
A
100
AcDbSymbolTableRecord
100
AcDbDimStyleTableRecord
  2
ISO-25
 70
     0
 41
2.5
 42
0.625
 43
3.75
 44
1.25
 73
     0
 74
     0
 77
     1
 78
     8
140
2.5
141
2.5
143
0.0393700787
147
0.625
171
     3
172
     1
178
     0
271
     2
272
     2
274
     3
278
    44
283
     0
284
     8
340
11
  0
ENDTAB
  0
TABLE
  2
BLOCK_RECORD
  5
1
330
0
100
AcDbSymbolTable
 70
     2
  0
BLOCK_RECORD
  5
1F
330
1
100
AcDbSymbolTableRecord
100
AcDbBlockTableRecord
  2
*Model_Space
340
22
  0
BLOCK_RECORD
  5
1B
330
1
100
AcDbSymbolTableRecord
100
AcDbBlockTableRecord
  2
*Paper_Space
340
1E
  0
BLOCK_RECORD
  5
23
330
1
100
AcDbSymbolTableRecord
100
AcDbBlockTableRecord
  2
*Paper_Space0
340
26
  0
BLOCK_RECORD
  5
118
330
1
100
AcDbSymbolTableRecord
100
AcDbBlockTableRecord
  2
SW_NOTE_5
340
0
102
{BLKREFS
331
11D
102
}
  0
ENDTAB
  0
ENDSEC
  0
SECTION
  2
BLOCKS
  0
BLOCK
  5
20
330
1F
100
AcDbEntity
  8
0
100
AcDbBlockBegin
  2
*Model_Space
 70
     0
 10
0.0
 20
0.0
 30
0.0
  3
*Model_Space
  1

  0
ENDBLK
  5
21
330
1F
100
AcDbEntity
  8
0
100
AcDbBlockEnd
  0
BLOCK
  5
1C
330
1B
100
AcDbEntity
 67
     1
  8
0
100
AcDbBlockBegin
  2
*Paper_Space
 70
     0
 10
0.0
 20
0.0
 30
0.0
  3
*Paper_Space
  1

  0
ENDBLK
  5
1D
330
1B
100
AcDbEntity
 67
     1
  8
0
100
AcDbBlockEnd
  0
BLOCK
  5
24
330
23
100
AcDbEntity
  8
0
100
AcDbBlockBegin
  2
*Paper_Space0
 70
     0
 10
0.0
 20
0.0
 30
0.0
  3
*Paper_Space0
  1

  0
ENDBLK
  5
25
330
23
100
AcDbEntity
  8
0
100
AcDbBlockEnd
  0
BLOCK
  5
119
330
118
100
AcDbEntity
  8
0
100
AcDbBlockBegin
  2
SW_NOTE_5
 70
     0
 10
0.0
 20
0.0
 30
0.0
  3
SW_NOTE_5
  1

  0
MTEXT
  5
11B
330
118
100
AcDbEntity
  8
FORMAT
 62
     0
100
AcDbMText
 10
17.418614375
 20
2.9148915359
 30
0.0
 40
2.26124
 41
0.0
 71
     2
 72
     1
  1
56-LEAD 8mm P=0.5 mm
  7
SLDTEXTSTYLE0
 73
     1
 44
1.0
  0
MTEXT
  5
11C
330
118
100
AcDbEntity
  8
FORMAT
 62
     0
100
AcDbMText
 10
17.3989830637
 20
-0.0058766878
 30
0.0
 40
2.26124
 41
0.0
 71
     2
 72
     1
  1
M-QFN56T.5-G3
  7
SLDTEXTSTYLE0
 73
     1
 44
1.0
  0
ENDBLK
  5
11A
330
118
100
AcDbEntity
  8
0
100
AcDbBlockEnd
  0
ENDSEC
  0
SECTION
  2
ENTITIES
  0
HATCH
  5
76
330
1F
100
AcDbEntity
  8
FORMAT
 62
     5
100
AcDbHatch
 10
0.0
 20
0.0
 30
0.0
210
0.0
220
0.0
230
1.0
  2
SOLID
 70
     1
 71
     0
 91
        1
 92
        0
 93
        5
 72
     1
 10
233.2043523684437
 20
36.68096854877886
 11
233.2176596316435
 21
36.69427581197871
 72
     1
 10
233.2176596316435
 20
36.69427581197871
 11
234.1558216872437
 21
41.46626039549884
 72
     1
 10
234.1558216872437
 20
41.46626039549884
 11
233.0113970520437
 21
40.59729610853886
 72
     1
 10
233.0113970520437
 20
40.59729610853886
 11
232.2661903128435
 21
36.68096854877886
 72
     1
 10
232.2661903128435
 20
36.68096854877886
 11
233.2043523684437
 21
36.68096854877886
 97
        0
 75
     0
 76
     1
 98
        1
 10
0.0
 20
0.0
  0
HATCH
  5
77
330
1F
100
AcDbEntity
  8
FORMAT
 62
     5
100
AcDbHatch
 10
0.0
 20
0.0
 30
0.0
210
0.0
220
0.0
230
1.0
  2
SOLID
 70
     1
 71
     0
 91
        1
 92
        0
 93
        4
 72
     1
 10
231.1497109303635
 20
38.22461107997889
 11
231.8935869432435
 21
39.68707930565873
 72
     1
 10
231.8935869432435
 20
39.68707930565873
 11
230.3353064225235
 21
38.54265467045887
 72
     1
 10
230.3353064225235
 20
38.54265467045887
 11
230.4870092230035
 21
38.1979965535789
 72
     1
 10
230.4870092230035
 20
38.1979965535789
 11
231.1497109303635
 21
38.22461107997889
 97
        0
 75
     0
 76
     1
 98
        1
 10
0.0
 20
0.0
  0
HATCH
  5
78
330
1F
100
AcDbEntity
  8
FORMAT
 62
     5
100
AcDbHatch
 10
0.0
 20
0.0
 30
0.0
210
0.0
220
0.0
230
1.0
  2
SOLID
 70
     1
 71
     0
 91
        1
 92
        0
 93
       14
 72
     1
 10
227.5846951190836
 20
37.99572615293882
 11
227.6086481928436
 21
38.09153844797875
 72
     1
 10
227.6086481928436
 20
38.09153844797875
 11
227.4183543290835
 21
37.18531382405889
 72
     1
 10
227.4183543290835
 20
37.18531382405889
 11
228.7517421017236
 21
37.92386693165886
 72
     1
 10
228.7517421017236
 20
37.92386693165886
 11
229.4663421355637
 21
40.94993858333883
 72
     1
 10
229.4663421355637
 20
40.94993858333883
 11
229.9906483056434
 21
39.49678544189878
 72
     1
 10
229.9906483056434
 20
39.49678544189878
 11
230.1290438429236
 21
38.98312508237885
 72
     1
 10
230.1290438429236
 20
38.98312508237885
 11
234.1411836977236
 21
41.82422577557882
 72
     1
 10
234.1411836977236
 20
41.82422577557882
 11
234.2939510792594
 21
42.56261919602048
 72
     1
 10
234.2939510792594
 20
42.56261919602048
 11
234.3035323087633
 21
42.56943251477884
 72
     1
 10
234.3035323087633
 20
42.56943251477884
 11
232.5163668610033
 21
42.56943251477885
 72
     1
 10
232.5163668610033
 20
42.56943251477885
 11
230.6347198445235
 21
40.16347932821877
 72
     1
 10
230.6347198445235
 20
40.16347932821877
 11
229.8961667369235
 21
42.59338558853883
 72
     1
 10
229.8961667369235
 20
42.59338558853883
 11
228.3472013004436
 21
42.59338558853883
 72
     1
 10
228.3472013004436
 20
42.59338558853883
 11
227.5846951190836
 21
37.99572615293882
 97
        0
 75
     0
 76
     1
 98
        1
 10
0.0
 20
0.0
  0
HATCH
  5
79
330
1F
100
AcDbEntity
  8
FORMAT
 62
     5
100
AcDbHatch
 10
0.0
 20
0.0
 30
0.0
210
0.0
220
0.0
230
1.0
  2
SOLID
 70
     1
 71
     0
 91
        1
 92
        0
 93
        3
 72
     1
 10
227.3691174552436
 20
36.57184899053899
 11
228.5068884588437
 21
36.57584116949884
 72
     1
 10
228.5068884588437
 20
36.57584116949884
 11
228.8435622178036
 21
37.44214400381889
 72
     1
 10
228.8435622178036
 20
37.44214400381889
 11
227.3691174552436
 21
36.57184899053899
 97
        0
 75
     0
 76
     1
 98
        1
 10
0.0
 20
0.0
  0
HATCH
  5
7A
330
1F
100
AcDbEntity
  8
FORMAT
 62
     5
100
AcDbHatch
 10
0.0
 20
0.0
 30
0.0
210
0.0
220
0.0
230
1.0
  2
SOLID
 70
     1
 71
     0
 91
        1
 92
        0
 93
        4
 72
     1
 10
235.4253345965235
 20
39.25677564282372
 11
234.4552351092435
 21
39.27008290602376
 72
     1
 10
234.4552351092435
 20
39.27008290602376
 11
233.6195389802836
 21
36.6698436767438
 72
     1
 10
233.6195389802836
 20
36.6698436767438
 11
234.5630239411636
 21
36.6698436767438
 72
     1
 10
234.5630239411636
 20
36.6698436767438
 11
235.4253345965235
 21
39.25677564282372
 97
        0
 75
     0
 76
     1
 98
        1
 10
0.0
 20
0.0
  0
HATCH
  5
7B
330
1F
100
AcDbEntity
  8
FORMAT
 62
     5
100
AcDbHatch
 10
0.0
 20
0.0
 30
0.0
210
0.0
220
0.0
230
1.0
  2
SOLID
 70
     1
 71
     0
 91
        1
 92
        0
 93
        4
 72
     1
 10
235.7007949447637
 20
40.29921341285888
 11
234.7573099838835
 21
40.29921341285888
 72
     1
 10
234.7573099838835
 20
40.29921341285888
 11
234.6095993623635
 21
39.86805808517888
 72
     1
 10
234.6095993623635
 20
39.86805808517888
 11
235.4852172809235
 21
39.86805808517888
 72
     1
 10
235.4852172809235
 20
39.86805808517888
 11
235.7007949447637
 21
40.29921341285888
 97
        0
 75
     0
 76
     1
 98
        1
 10
0.0
 20
0.0
  0
HATCH
  5
7C
330
1F
100
AcDbEntity
  8
FORMAT
 62
     5
100
AcDbHatch
 10
0.0
 20
0.0
 30
0.0
210
0.0
220
0.0
230
1.0
  2
SOLID
 70
     1
 71
     0
 91
        1
 92
        0
 93
        4
 72
     1
 10
237.4493693292436
 20
39.31133542194379
 11
236.4792698419635
 21
39.32464268514363
 72
     1
 10
236.4792698419635
 20
39.32464268514363
 11
235.6435737130034
 21
36.72440345586379
 72
     1
 10
235.6435737130034
 20
36.72440345586379
 11
236.5870586738835
 21
36.72440345586379
 72
     1
 10
236.5870586738835
 20
36.72440345586379
 11
237.4493693292436
 21
39.31133542194379
 97
        0
 75
     0
 76
     1
 98
        1
 10
0.0
 20
0.0
  0
HATCH
  5
7D
330
1F
100
AcDbEntity
  8
FORMAT
 62
     5
100
AcDbHatch
 10
0.0
 20
0.0
 30
0.0
210
0.0
220
0.0
230
1.0
  2
SOLID
 70
     1
 71
     0
 91
        1
 92
        0
 93
        4
 72
     1
 10
237.2604061918034
 20
38.64378987077896
 11
237.1725782546835
 21
38.41091276477881
 72
     2
 10
237.9536287161166
 20
36.68165918964395
 40
1.89746086927281
 50
245.69277487793
 51
287.5544885508828
 73
     0
 72
     1
 10
238.5259269221234
 20
38.49075634397897
 11
238.6935984384442
 21
39.29052286230165
 72
     2
 10
238.8305203238161
 20
37.07571831024762
 40
2.219032853856182
 50
93.53759196352873
 51
135.0372924741154
 73
     1
 97
        0
 75
     0
 76
     1
 98
        1
 10
0.0
 20
0.0
  0
HATCH
  5
7E
330
1F
100
AcDbEntity
  8
FORMAT
 62
     5
100
AcDbHatch
 10
0.0
 20
0.0
 30
0.0
210
0.0
220
0.0
230
1.0
  2
SOLID
 70
     1
 71
     0
 91
        1
 92
        0
 93
        8
 72
     2
 10
241.0861584733965
 20
36.68298991596386
 40
1.89746086927288
 50
113.6470200075399
 51
114.3072251220664
 73
     1
 72
     1
 10
240.3051080119635
 20
38.41224349109883
 11
240.3929359490835
 21
38.64512059709883
 72
     2
 10
241.9630500810934
 20
37.07704903656472
 40
2.21903285385615
 50
224.9627075259873
 51
225.3339717379579
 73
     0
 72
     1
 10
240.4031296037894
 20
38.65526160494095
 11
240.6098443392436
 21
39.27540581130365
 72
     1
 10
240.6098443392436
 20
39.27540581130365
 11
239.6397448519635
 21
39.28871307450365
 72
     1
 10
239.6397448519635
 20
39.28871307450365
 11
238.8040487230035
 21
36.68847384522365
 72
     1
 10
238.8040487230035
 20
36.68847384522365
 11
239.7475336838836
 21
36.68847384522365
 72
     1
 10
239.7475336838836
 20
36.68847384522365
 11
240.3250851837873
 21
38.42112834493471
 97
        0
 75
     0
 76
     1
 98
        1
 10
0.0
 20
0.0
  0
HATCH
  5
7F
330
1F
100
AcDbEntity
  8
FORMAT
 62
     5
100
AcDbHatch
 10
0.0
 20
0.0
 30
0.0
210
0.0
220
0.0
230
1.0
  2
SOLID
 70
     1
 71
     0
 91
        1
 92
        0
 93
        4
 72
     1
 10
240.4031296037894
 20
38.65526160494095
 11
240.3250851837873
 21
38.42112834493471
 72
     2
 10
241.0861584733965
 20
36.68298991596386
 40
1.89746086927288
 50
246.352979992461
 51
287.5544885508905
 73
     0
 72
     1
 10
241.6584566794035
 20
38.49208707029883
 11
241.8261281957236
 21
39.29185358861886
 72
     2
 10
241.9630500810934
 20
37.07704903656472
 40
2.21903285385615
 50
93.53759196347507
 51
134.6660282620429
 73
     1
 97
        0
 75
     0
 76
     1
 98
        1
 10
0.0
 20
0.0
  0
HATCH
  5
80
330
1F
100
AcDbEntity
  8
FORMAT
 62
     5
100
AcDbHatch
 10
0.0
 20
0.0
 30
0.0
210
0.0
220
0.0
230
1.0
  2
SOLID
 70
     1
 71
     0
 91
        2
 92
        0
 93
        2
 72
     2
 10
242.9758757362035
 20
37.95048145805878
 40
1.218040415222443
 50
0.0
 51
180.0
 73
     1
 72
     2
 10
242.9758757362035
 20
37.95048145805878
 40
1.218040415222443
 50
180.0
 51
360.0000000000008
 73
     1
 97
        0
 92
        0
 93
        2
 72
     2
 10
242.9984980836437
 20
37.97842671077878
 40
0.6570594277632569
 50
0.0
 51
180.0
 73
     0
 72
     2
 10
242.9984980836437
 20
37.97842671077878
 40
0.6570594277632569
 50
180.0
 51
360.0000000000008
 73
     0
 97
        0
 75
     0
 76
     1
 98
        1
 10
0.0
 20
0.0
  0
HATCH
  5
81
330
1F
100
AcDbEntity
  8
FORMAT
 62
     5
100
AcDbHatch
 10
0.0
 20
0.0
 30
0.0
210
0.0
220
0.0
230
1.0
  2
SOLID
 70
     1
 71
     0
 91
        1
 92
        0
 93
        8
 72
     2
 10
246.4556391745965
 20
36.66435974748386
 40
1.897460869272783
 50
113.7841350920132
 51
114.3072251220602
 73
     1
 72
     1
 10
245.6745887131637
 20
38.39361332261883
 11
245.7624166502835
 21
38.62649042861888
 72
     2
 10
247.3325307822933
 20
37.05841886808472
 40
2.219032853856148
 50
224.9627075259891
 51
225.1412016455075
 73
     0
 72
     1
 10
245.767309290618
 20
38.63137420390667
 11
245.9819864930836
 21
39.27540581130364
 72
     1
 10
245.9819864930836
 20
39.27540581130364
 11
245.0118870058036
 21
39.28871307450364
 72
     1
 10
245.0118870058036
 20
39.28871307450364
 11
244.1761908768437
 21
36.68847384522365
 72
     1
 10
244.1761908768437
 20
36.68847384522365
 11
245.1196758377237
 21
36.68847384522365
 72
     1
 10
245.1196758377237
 20
36.68847384522365
 11
245.6904085123836
 21
38.40067186920353
 97
        0
 75
     0
 76
     1
 98
        1
 10
0.0
 20
0.0
  0
HATCH
  5
82
330
1F
100
AcDbEntity
  8
FORMAT
 62
     5
100
AcDbHatch
 10
0.0
 20
0.0
 30
0.0
210
0.0
220
0.0
230
1.0
  2
SOLID
 70
     1
 71
     0
 91
        1
 92
        0
 93
        4
 72
     1
 10
245.767309290618
 20
38.63137420390667
 11
245.6904085123836
 21
38.40067186920353
 72
     2
 10
246.4556391745965
 20
36.66435974748386
 40
1.897460869272783
 50
246.2158649079877
 51
287.5544885508897
 73
     0
 72
     1
 10
247.0279373806035
 20
38.47345690181875
 11
247.1956088969235
 21
39.27322342013886
 72
     2
 10
247.3325307822933
 20
37.05841886808472
 40
2.219032853856148
 50
93.53759196347363
 51
134.8587983544933
 73
     1
 97
        0
 75
     0
 76
     1
 98
        1
 10
0.0
 20
0.0
  0
LINE
  5
83
330
1F
100
AcDbEntity
  8
FORMAT
100
AcDbLine
 10
8.3801458
 20
208.0786585366
 30
0.0
 11
270.0001458
 21
208.0786585366
 31
0.0
  0
LINE
  5
84
330
1F
100
AcDbEntity
  8
FORMAT
100
AcDbLine
 10
8.3801458
 20
208.0786585366
 30
0.0
 11
8.3801458
 21
9.9586585366
 31
0.0
  0
LINE
  5
85
330
1F
100
AcDbEntity
  8
FORMAT
100
AcDbLine
 10
270.0001458
 20
9.9586585366
 30
0.0
 11
8.3801458
 21
9.9586585366
 31
0.0
  0
LINE
  5
86
330
1F
100
AcDbEntity
  8
FORMAT
100
AcDbLine
 10
270.0001458
 20
9.9586585366
 30
0.0
 11
270.0001458
 21
208.0786585366
 31
0.0
  0
LINE
  5
87
330
1F
100
AcDbEntity
  8
FORMAT
 62
     5
100
AcDbLine
 10
244.1761908768
 20
36.6884738452
 30
0.0
 11
245.1196758377
 21
36.6884738452
 31
0.0
  0
LINE
  5
88
330
1F
100
AcDbEntity
  8
FORMAT
 62
     5
100
AcDbLine
 10
245.1196758377
 20
36.6884738452
 30
0.0
 11
245.9819864931
 21
39.2754058113
 31
0.0
  0
LINE
  5
89
330
1F
100
AcDbEntity
  8
FORMAT
 62
     5
100
AcDbLine
 10
245.9819864931
 20
39.2754058113
 30
0.0
 11
245.0118870058
 21
39.2887130745
 31
0.0
  0
LINE
  5
8A
330
1F
100
AcDbEntity
  8
FORMAT
 62
     5
100
AcDbLine
 10
245.0118870058
 20
39.2887130745
 30
0.0
 11
244.1761908768
 21
36.6884738452
 31
0.0
  0
LINE
  5
8B
330
1F
100
AcDbEntity
  8
FORMAT
 62
     5
100
AcDbLine
 10
238.804048723
 20
36.6884738452
 30
0.0
 11
239.7475336839
 21
36.6884738452
 31
0.0
  0
LINE
  5
8C
330
1F
100
AcDbEntity
  8
FORMAT
 62
     5
100
AcDbLine
 10
239.7475336839
 20
36.6884738452
 30
0.0
 11
240.6098443392
 21
39.2754058113
 31
0.0
  0
LINE
  5
8D
330
1F
100
AcDbEntity
  8
FORMAT
 62
     5
100
AcDbLine
 10
240.6098443392
 20
39.2754058113
 30
0.0
 11
239.639744852
 21
39.2887130745
 31
0.0
  0
LINE
  5
8E
330
1F
100
AcDbEntity
  8
FORMAT
 62
     5
100
AcDbLine
 10
239.639744852
 20
39.2887130745
 30
0.0
 11
238.804048723
 21
36.6884738452
 31
0.0
  0
LINE
  5
8F
330
1F
100
AcDbEntity
  8
FORMAT
 62
     5
100
AcDbLine
 10
235.643573713
 20
36.7244034559
 30
0.0
 11
236.5870586739
 21
36.7244034559
 31
0.0
  0
LINE
  5
90
330
1F
100
AcDbEntity
  8
FORMAT
 62
     5
100
AcDbLine
 10
236.5870586739
 20
36.7244034559
 30
0.0
 11
237.4493693292
 21
39.3113354219
 31
0.0
  0
LINE
  5
91
330
1F
100
AcDbEntity
  8
FORMAT
 62
     5
100
AcDbLine
 10
237.4493693292
 20
39.3113354219
 30
0.0
 11
236.479269842
 21
39.3246426851
 31
0.0
  0
LINE
  5
92
330
1F
100
AcDbEntity
  8
FORMAT
 62
     5
100
AcDbLine
 10
236.479269842
 20
39.3246426851
 30
0.0
 11
235.643573713
 21
36.7244034559
 31
0.0
  0
LINE
  5
93
330
1F
100
AcDbEntity
  8
FORMAT
 62
     5
100
AcDbLine
 10
245.7624166503
 20
38.6264904286
 30
0.0
 11
245.6745887132
 21
38.3936133226
 31
0.0
  0
LINE
  5
94
330
1F
100
AcDbEntity
  8
FORMAT
 62
     5
100
AcDbLine
 10
247.0279373806
 20
38.4734569018
 30
0.0
 11
247.1956088969
 21
39.2732234201
 31
0.0
  0
LINE
  5
95
330
1F
100
AcDbEntity
  8
FORMAT
 62
     5
100
AcDbLine
 10
240.3929359491
 20
38.6451205971
 30
0.0
 11
240.305108012
 21
38.4122434911
 31
0.0
  0
LINE
  5
96
330
1F
100
AcDbEntity
  8
FORMAT
 62
     5
100
AcDbLine
 10
241.6584566794
 20
38.4920870703
 30
0.0
 11
241.8261281957
 21
39.2918535886
 31
0.0
  0
LINE
  5
97
330
1F
100
AcDbEntity
  8
FORMAT
 62
     5
100
AcDbLine
 10
237.2604061918
 20
38.6437898708
 30
0.0
 11
237.1725782547
 21
38.4109127648
 31
0.0
  0
LINE
  5
98
330
1F
100
AcDbEntity
  8
FORMAT
 62
     5
100
AcDbLine
 10
238.5259269221
 20
38.490756344
 30
0.0
 11
238.6935984384
 21
39.2905228623
 31
0.0
  0
LINE
  5
99
330
1F
100
AcDbEntity
  8
FORMAT
 62
     5
100
AcDbLine
 10
234.6095993624
 20
39.8680580852
 30
0.0
 11
235.4852172809
 21
39.8680580852
 31
0.0
  0
LINE
  5
9A
330
1F
100
AcDbEntity
  8
FORMAT
 62
     5
100
AcDbLine
 10
235.4852172809
 20
39.8680580852
 30
0.0
 11
235.7007949448
 21
40.2992134129
 31
0.0
  0
LINE
  5
9B
330
1F
100
AcDbEntity
  8
FORMAT
 62
     5
100
AcDbLine
 10
235.7007949448
 20
40.2992134129
 30
0.0
 11
234.7573099839
 21
40.2992134129
 31
0.0
  0
LINE
  5
9C
330
1F
100
AcDbEntity
  8
FORMAT
 62
     5
100
AcDbLine
 10
234.7573099839
 20
40.2992134129
 30
0.0
 11
234.6095993624
 21
39.8680580852
 31
0.0
  0
LINE
  5
9D
330
1F
100
AcDbEntity
  8
FORMAT
 62
     5
100
AcDbLine
 10
233.6195389803
 20
36.6698436767
 30
0.0
 11
234.5630239412
 21
36.6698436767
 31
0.0
  0
LINE
  5
9E
330
1F
100
AcDbEntity
  8
FORMAT
 62
     5
100
AcDbLine
 10
234.5630239412
 20
36.6698436767
 30
0.0
 11
235.4253345965
 21
39.2567756428
 31
0.0
  0
LINE
  5
9F
330
1F
100
AcDbEntity
  8
FORMAT
 62
     5
100
AcDbLine
 10
235.4253345965
 20
39.2567756428
 30
0.0
 11
234.4552351092
 21
39.270082906
 31
0.0
  0
LINE
  5
A0
330
1F
100
AcDbEntity
  8
FORMAT
 62
     5
100
AcDbLine
 10
234.4552351092
 20
39.270082906
 30
0.0
 11
233.6195389803
 21
36.6698436767
 31
0.0
  0
LINE
  5
A1
330
1F
100
AcDbEntity
  8
FORMAT
 62
     5
100
AcDbLine
 10
230.3353064225
 20
38.5426546705
 30
0.0
 11
230.487009223
 21
38.1979965536
 31
0.0
  0
LINE
  5
A2
330
1F
100
AcDbEntity
  8
FORMAT
 62
     5
100
AcDbLine
 10
230.487009223
 20
38.1979965536
 30
0.0
 11
231.1497109304
 21
38.22461108
 31
0.0
  0
LINE
  5
A3
330
1F
100
AcDbEntity
  8
FORMAT
 62
     5
100
AcDbLine
 10
231.1497109304
 20
38.22461108
 30
0.0
 11
231.8935869432
 21
39.6870793057
 31
0.0
  0
LINE
  5
A4
330
1F
100
AcDbEntity
  8
FORMAT
 62
     5
100
AcDbLine
 10
231.8935869432
 20
39.6870793057
 30
0.0
 11
230.3353064225
 21
38.5426546705
 31
0.0
  0
LINE
  5
A5
330
1F
100
AcDbEntity
  8
FORMAT
 62
     5
100
AcDbLine
 10
233.2043523684
 20
36.6809685488
 30
0.0
 11
232.2661903128
 21
36.6809685488
 31
0.0
  0
LINE
  5
A6
330
1F
100
AcDbEntity
  8
FORMAT
 62
     5
100
AcDbLine
 10
232.2661903128
 20
36.6809685488
 30
0.0
 11
233.011397052
 21
40.5972961085
 31
0.0
  0
LINE
  5
A7
330
1F
100
AcDbEntity
  8
FORMAT
 62
     5
100
AcDbLine
 10
233.011397052
 20
40.5972961085
 30
0.0
 11
234.1558216872
 21
41.4662603955
 31
0.0
  0
LINE
  5
A8
330
1F
100
AcDbEntity
  8
FORMAT
 62
     5
100
AcDbLine
 10
234.1558216872
 20
41.4662603955
 30
0.0
 11
233.2176596316
 21
36.694275812
 31
0.0
  0
LINE
  5
A9
330
1F
100
AcDbEntity
  8
FORMAT
 62
     5
100
AcDbLine
 10
233.2176596316
 20
36.694275812
 30
0.0
 11
233.2043523684
 21
36.6809685488
 31
0.0
  0
LINE
  5
AA
330
1F
100
AcDbEntity
  8
FORMAT
 62
     5
100
AcDbLine
 10
228.8435622178
 20
37.4421440038
 30
0.0
 11
227.3691174552
 21
36.5718489905
 31
0.0
  0
LINE
  5
AB
330
1F
100
AcDbEntity
  8
FORMAT
 62
     5
100
AcDbLine
 10
227.3691174552
 20
36.5718489905
 30
0.0
 11
228.5068884588
 21
36.5758411695
 31
0.0
  0
LINE
  5
AC
330
1F
100
AcDbEntity
  8
FORMAT
 62
     5
100
AcDbLine
 10
228.5068884588
 20
36.5758411695
 30
0.0
 11
228.8435622178
 21
37.4421440038
 31
0.0
  0
LINE
  5
AD
330
1F
100
AcDbEntity
  8
FORMAT
 62
     5
100
AcDbLine
 10
227.5846951191
 20
37.9957261529
 30
0.0
 11
228.3472013004
 21
42.5933855885
 31
0.0
  0
LINE
  5
AE
330
1F
100
AcDbEntity
  8
FORMAT
 62
     5
100
AcDbLine
 10
228.3472013004
 20
42.5933855885
 30
0.0
 11
229.8961667369
 21
42.5933855885
 31
0.0
  0
LINE
  5
AF
330
1F
100
AcDbEntity
  8
FORMAT
 62
     5
100
AcDbLine
 10
229.8961667369
 20
42.5933855885
 30
0.0
 11
230.6347198445
 21
40.1634793282
 31
0.0
  0
LINE
  5
B0
330
1F
100
AcDbEntity
  8
FORMAT
 62
     5
100
AcDbLine
 10
230.6347198445
 20
40.1634793282
 30
0.0
 11
232.516366861
 21
42.5694325148
 31
0.0
  0
LINE
  5
B1
330
1F
100
AcDbEntity
  8
FORMAT
 62
     5
100
AcDbLine
 10
232.516366861
 20
42.5694325148
 30
0.0
 11
234.3035323088
 21
42.5694325148
 31
0.0
  0
LINE
  5
B2
330
1F
100
AcDbEntity
  8
FORMAT
 62
     5
100
AcDbLine
 10
234.3035323088
 20
42.5694325148
 30
0.0
 11
234.2939510793
 21
42.562619196
 31
0.0
  0
LINE
  5
B3
330
1F
100
AcDbEntity
  8
FORMAT
 62
     5
100
AcDbLine
 10
234.2939510793
 20
42.562619196
 30
0.0
 11
234.1411836977
 21
41.8242257756
 31
0.0
  0
LINE
  5
B4
330
1F
100
AcDbEntity
  8
FORMAT
 62
     5
100
AcDbLine
 10
234.1411836977
 20
41.8242257756
 30
0.0
 11
230.1290438429
 21
38.9831250824
 31
0.0
  0
LINE
  5
B5
330
1F
100
AcDbEntity
  8
FORMAT
 62
     5
100
AcDbLine
 10
230.1290438429
 20
38.9831250824
 30
0.0
 11
229.9906483056
 21
39.4967854419
 31
0.0
  0
LINE
  5
B6
330
1F
100
AcDbEntity
  8
FORMAT
 62
     5
100
AcDbLine
 10
229.9906483056
 20
39.4967854419
 30
0.0
 11
229.4663421356
 21
40.9499385833
 31
0.0
  0
LINE
  5
B7
330
1F
100
AcDbEntity
  8
FORMAT
 62
     5
100
AcDbLine
 10
229.4663421356
 20
40.9499385833
 30
0.0
 11
228.7517421017
 21
37.9238669317
 31
0.0
  0
LINE
  5
B8
330
1F
100
AcDbEntity
  8
FORMAT
 62
     5
100
AcDbLine
 10
228.7517421017
 20
37.9238669317
 30
0.0
 11
227.4183543291
 21
37.1853138241
 31
0.0
  0
LINE
  5
B9
330
1F
100
AcDbEntity
  8
FORMAT
 62
     5
100
AcDbLine
 10
227.4183543291
 20
37.1853138241
 30
0.0
 11
227.6086481928
 21
38.091538448
 31
0.0
  0
LINE
  5
BA
330
1F
100
AcDbEntity
  8
FORMAT
 62
     5
100
AcDbLine
 10
227.6086481928
 20
38.091538448
 30
0.0
 11
227.5846951191
 21
37.9957261529
 31
0.0
  0
LINE
  5
BB
330
1F
100
AcDbEntity
  8
FORMAT
 62
     5
370
    15
100
AcDbLine
 10
227.5846951191
 20
37.9957261529
 30
0.0
 11
228.3472013004
 21
42.5933855885
 31
0.0
  0
LINE
  5
BC
330
1F
100
AcDbEntity
  8
FORMAT
 62
     5
370
    15
100
AcDbLine
 10
228.3472013004
 20
42.5933855885
 30
0.0
 11
229.8961667369
 21
42.5933855885
 31
0.0
  0
LINE
  5
BD
330
1F
100
AcDbEntity
  8
FORMAT
 62
     5
370
    15
100
AcDbLine
 10
229.8961667369
 20
42.5933855885
 30
0.0
 11
230.6347198445
 21
40.1634793282
 31
0.0
  0
LINE
  5
BE
330
1F
100
AcDbEntity
  8
FORMAT
 62
     5
370
    15
100
AcDbLine
 10
230.6347198445
 20
40.1634793282
 30
0.0
 11
232.516366861
 21
42.5694325148
 31
0.0
  0
LINE
  5
BF
330
1F
100
AcDbEntity
  8
FORMAT
 62
     5
370
    15
100
AcDbLine
 10
232.516366861
 20
42.5694325148
 30
0.0
 11
234.3035323088
 21
42.5694325148
 31
0.0
  0
LINE
  5
C0
330
1F
100
AcDbEntity
  8
FORMAT
 62
     5
370
    15
100
AcDbLine
 10
234.3035323088
 20
42.5694325148
 30
0.0
 11
234.2939510793
 21
42.562619196
 31
0.0
  0
LINE
  5
C1
330
1F
100
AcDbEntity
  8
FORMAT
 62
     5
370
    15
100
AcDbLine
 10
234.2939510793
 20
42.562619196
 30
0.0
 11
234.1411836977
 21
41.8242257756
 31
0.0
  0
LINE
  5
C2
330
1F
100
AcDbEntity
  8
FORMAT
 62
     5
370
    15
100
AcDbLine
 10
234.1411836977
 20
41.8242257756
 30
0.0
 11
230.1290438429
 21
38.9831250824
 31
0.0
  0
LINE
  5
C3
330
1F
100
AcDbEntity
  8
FORMAT
 62
     5
370
    15
100
AcDbLine
 10
230.1290438429
 20
38.9831250824
 30
0.0
 11
229.9906483056
 21
39.4967854419
 31
0.0
  0
LINE
  5
C4
330
1F
100
AcDbEntity
  8
FORMAT
 62
     5
370
    15
100
AcDbLine
 10
229.9906483056
 20
39.4967854419
 30
0.0
 11
229.4663421356
 21
40.9499385833
 31
0.0
  0
LINE
  5
C5
330
1F
100
AcDbEntity
  8
FORMAT
 62
     5
370
    15
100
AcDbLine
 10
229.4663421356
 20
40.9499385833
 30
0.0
 11
228.7517421017
 21
37.9238669317
 31
0.0
  0
LINE
  5
C6
330
1F
100
AcDbEntity
  8
FORMAT
 62
     5
370
    15
100
AcDbLine
 10
228.7517421017
 20
37.9238669317
 30
0.0
 11
227.4183543291
 21
37.1853138241
 31
0.0
  0
LINE
  5
C7
330
1F
100
AcDbEntity
  8
FORMAT
 62
     5
370
    15
100
AcDbLine
 10
227.4183543291
 20
37.1853138241
 30
0.0
 11
227.6086481928
 21
38.091538448
 31
0.0
  0
LINE
  5
C8
330
1F
100
AcDbEntity
  8
FORMAT
 62
     5
370
    15
100
AcDbLine
 10
227.6086481928
 20
38.091538448
 30
0.0
 11
227.5846951191
 21
37.9957261529
 31
0.0
  0
LINE
  5
C9
330
1F
100
AcDbEntity
  8
FORMAT
 62
     5
370
    15
100
AcDbLine
 10
228.8435622178
 20
37.4421440038
 30
0.0
 11
227.3691174552
 21
36.5718489905
 31
0.0
  0
LINE
  5
CA
330
1F
100
AcDbEntity
  8
FORMAT
 62
     5
370
    15
100
AcDbLine
 10
227.3691174552
 20
36.5718489905
 30
0.0
 11
228.5068884588
 21
36.5758411695
 31
0.0
  0
LINE
  5
CB
330
1F
100
AcDbEntity
  8
FORMAT
 62
     5
370
    15
100
AcDbLine
 10
228.5068884588
 20
36.5758411695
 30
0.0
 11
228.8435622178
 21
37.4421440038
 31
0.0
  0
LINE
  5
CC
330
1F
100
AcDbEntity
  8
FORMAT
 62
     5
370
    15
100
AcDbLine
 10
233.2043523684
 20
36.6809685488
 30
0.0
 11
232.2661903128
 21
36.6809685488
 31
0.0
  0
LINE
  5
CD
330
1F
100
AcDbEntity
  8
FORMAT
 62
     5
370
    15
100
AcDbLine
 10
232.2661903128
 20
36.6809685488
 30
0.0
 11
233.011397052
 21
40.5972961085
 31
0.0
  0
LINE
  5
CE
330
1F
100
AcDbEntity
  8
FORMAT
 62
     5
370
    15
100
AcDbLine
 10
233.011397052
 20
40.5972961085
 30
0.0
 11
234.1558216872
 21
41.4662603955
 31
0.0
  0
LINE
  5
CF
330
1F
100
AcDbEntity
  8
FORMAT
 62
     5
370
    15
100
AcDbLine
 10
234.1558216872
 20
41.4662603955
 30
0.0
 11
233.2176596316
 21
36.694275812
 31
0.0
  0
LINE
  5
D0
330
1F
100
AcDbEntity
  8
FORMAT
 62
     5
370
    15
100
AcDbLine
 10
233.2176596316
 20
36.694275812
 30
0.0
 11
233.2043523684
 21
36.6809685488
 31
0.0
  0
LINE
  5
D1
330
1F
100
AcDbEntity
  8
FORMAT
 62
     5
370
    15
100
AcDbLine
 10
230.3353064225
 20
38.5426546705
 30
0.0
 11
230.487009223
 21
38.1979965536
 31
0.0
  0
LINE
  5
D2
330
1F
100
AcDbEntity
  8
FORMAT
 62
     5
370
    15
100
AcDbLine
 10
230.487009223
 20
38.1979965536
 30
0.0
 11
231.1497109304
 21
38.22461108
 31
0.0
  0
LINE
  5
D3
330
1F
100
AcDbEntity
  8
FORMAT
 62
     5
370
    15
100
AcDbLine
 10
231.1497109304
 20
38.22461108
 30
0.0
 11
231.8935869432
 21
39.6870793057
 31
0.0
  0
LINE
  5
D4
330
1F
100
AcDbEntity
  8
FORMAT
 62
     5
370
    15
100
AcDbLine
 10
231.8935869432
 20
39.6870793057
 30
0.0
 11
230.3353064225
 21
38.5426546705
 31
0.0
  0
LINE
  5
D5
330
1F
100
AcDbEntity
  8
FORMAT
 62
     5
370
    15
100
AcDbLine
 10
233.6195389803
 20
36.6698436767
 30
0.0
 11
234.5630239412
 21
36.6698436767
 31
0.0
  0
LINE
  5
D6
330
1F
100
AcDbEntity
  8
FORMAT
 62
     5
370
    15
100
AcDbLine
 10
234.5630239412
 20
36.6698436767
 30
0.0
 11
235.4253345965
 21
39.2567756428
 31
0.0
  0
LINE
  5
D7
330
1F
100
AcDbEntity
  8
FORMAT
 62
     5
370
    15
100
AcDbLine
 10
235.4253345965
 20
39.2567756428
 30
0.0
 11
234.4552351092
 21
39.270082906
 31
0.0
  0
LINE
  5
D8
330
1F
100
AcDbEntity
  8
FORMAT
 62
     5
370
    15
100
AcDbLine
 10
234.4552351092
 20
39.270082906
 30
0.0
 11
233.6195389803
 21
36.6698436767
 31
0.0
  0
LINE
  5
D9
330
1F
100
AcDbEntity
  8
FORMAT
 62
     5
370
    15
100
AcDbLine
 10
234.6095993624
 20
39.8680580852
 30
0.0
 11
235.4852172809
 21
39.8680580852
 31
0.0
  0
LINE
  5
DA
330
1F
100
AcDbEntity
  8
FORMAT
 62
     5
370
    15
100
AcDbLine
 10
235.4852172809
 20
39.8680580852
 30
0.0
 11
235.7007949448
 21
40.2992134129
 31
0.0
  0
LINE
  5
DB
330
1F
100
AcDbEntity
  8
FORMAT
 62
     5
370
    15
100
AcDbLine
 10
235.7007949448
 20
40.2992134129
 30
0.0
 11
234.7573099839
 21
40.2992134129
 31
0.0
  0
LINE
  5
DC
330
1F
100
AcDbEntity
  8
FORMAT
 62
     5
370
    15
100
AcDbLine
 10
234.7573099839
 20
40.2992134129
 30
0.0
 11
234.6095993624
 21
39.8680580852
 31
0.0
  0
LINE
  5
DD
330
1F
100
AcDbEntity
  8
FORMAT
 62
     5
370
    15
100
AcDbLine
 10
237.2604061918
 20
38.6437898708
 30
0.0
 11
237.1725782547
 21
38.4109127648
 31
0.0
  0
LINE
  5
DE
330
1F
100
AcDbEntity
  8
FORMAT
 62
     5
370
    15
100
AcDbLine
 10
238.5259269221
 20
38.490756344
 30
0.0
 11
238.6935984384
 21
39.2905228623
 31
0.0
  0
LINE
  5
DF
330
1F
100
AcDbEntity
  8
FORMAT
 62
     5
370
    15
100
AcDbLine
 10
240.3929359491
 20
38.6451205971
 30
0.0
 11
240.305108012
 21
38.4122434911
 31
0.0
  0
LINE
  5
E0
330
1F
100
AcDbEntity
  8
FORMAT
 62
     5
370
    15
100
AcDbLine
 10
241.6584566794
 20
38.4920870703
 30
0.0
 11
241.8261281957
 21
39.2918535886
 31
0.0
  0
LINE
  5
E1
330
1F
100
AcDbEntity
  8
FORMAT
 62
     5
370
    15
100
AcDbLine
 10
245.7624166503
 20
38.6264904286
 30
0.0
 11
245.6745887132
 21
38.3936133226
 31
0.0
  0
LINE
  5
E2
330
1F
100
AcDbEntity
  8
FORMAT
 62
     5
370
    15
100
AcDbLine
 10
247.0279373806
 20
38.4734569018
 30
0.0
 11
247.1956088969
 21
39.2732234201
 31
0.0
  0
LINE
  5
E3
330
1F
100
AcDbEntity
  8
FORMAT
 62
     5
370
    15
100
AcDbLine
 10
235.643573713
 20
36.7244034559
 30
0.0
 11
236.5870586739
 21
36.7244034559
 31
0.0
  0
LINE
  5
E4
330
1F
100
AcDbEntity
  8
FORMAT
 62
     5
370
    15
100
AcDbLine
 10
236.5870586739
 20
36.7244034559
 30
0.0
 11
237.4493693292
 21
39.3113354219
 31
0.0
  0
LINE
  5
E5
330
1F
100
AcDbEntity
  8
FORMAT
 62
     5
370
    15
100
AcDbLine
 10
237.4493693292
 20
39.3113354219
 30
0.0
 11
236.479269842
 21
39.3246426851
 31
0.0
  0
LINE
  5
E6
330
1F
100
AcDbEntity
  8
FORMAT
 62
     5
370
    15
100
AcDbLine
 10
236.479269842
 20
39.3246426851
 30
0.0
 11
235.643573713
 21
36.7244034559
 31
0.0
  0
LINE
  5
E7
330
1F
100
AcDbEntity
  8
FORMAT
 62
     5
370
    15
100
AcDbLine
 10
238.804048723
 20
36.6884738452
 30
0.0
 11
239.7475336839
 21
36.6884738452
 31
0.0
  0
LINE
  5
E8
330
1F
100
AcDbEntity
  8
FORMAT
 62
     5
370
    15
100
AcDbLine
 10
239.7475336839
 20
36.6884738452
 30
0.0
 11
240.6098443392
 21
39.2754058113
 31
0.0
  0
LINE
  5
E9
330
1F
100
AcDbEntity
  8
FORMAT
 62
     5
370
    15
100
AcDbLine
 10
240.6098443392
 20
39.2754058113
 30
0.0
 11
239.639744852
 21
39.2887130745
 31
0.0
  0
LINE
  5
EA
330
1F
100
AcDbEntity
  8
FORMAT
 62
     5
370
    15
100
AcDbLine
 10
239.639744852
 20
39.2887130745
 30
0.0
 11
238.804048723
 21
36.6884738452
 31
0.0
  0
LINE
  5
EB
330
1F
100
AcDbEntity
  8
FORMAT
 62
     5
370
    15
100
AcDbLine
 10
244.1761908768
 20
36.6884738452
 30
0.0
 11
245.1196758377
 21
36.6884738452
 31
0.0
  0
LINE
  5
EC
330
1F
100
AcDbEntity
  8
FORMAT
 62
     5
370
    15
100
AcDbLine
 10
245.1196758377
 20
36.6884738452
 30
0.0
 11
245.9819864931
 21
39.2754058113
 31
0.0
  0
LINE
  5
ED
330
1F
100
AcDbEntity
  8
FORMAT
 62
     5
370
    15
100
AcDbLine
 10
245.9819864931
 20
39.2754058113
 30
0.0
 11
245.0118870058
 21
39.2887130745
 31
0.0
  0
LINE
  5
EE
330
1F
100
AcDbEntity
  8
FORMAT
 62
     5
370
    15
100
AcDbLine
 10
245.0118870058
 20
39.2887130745
 30
0.0
 11
244.1761908768
 21
36.6884738452
 31
0.0
  0
LINE
  5
EF
330
1F
100
AcDbEntity
  8
0
  6
Continuous
 62
   179
370
     0
100
AcDbLine
 10
270.0001458
 20
14.5137213527
 30
0.0
 11
203.18217691
 21
14.5137213527
 31
0.0
  0
LINE
  5
F0
330
1F
100
AcDbEntity
  8
0
  6
Continuous
 62
   179
370
     0
100
AcDbLine
 10
203.18217691
 20
23.6266804656
 30
0.0
 11
270.0001458
 21
23.6266804656
 31
0.0
  0
LINE
  5
F1
330
1F
100
AcDbEntity
  8
0
  6
Continuous
 62
   179
370
     0
100
AcDbLine
 10
270.0001458
 20
32.7368060978
 30
0.0
 11
203.18217691
 21
32.7368060978
 31
0.0
  0
LINE
  5
F2
330
1F
100
AcDbEntity
  8
0
  6
Continuous
 62
   179
370
     0
100
AcDbLine
 10
228.9792322894
 20
23.6266804656
 30
0.0
 11
228.9792322894
 21
14.5137213527
 31
0.0
  0
LINE
  5
F3
330
1F
100
AcDbEntity
  8
0
  6
Continuous
 62
   179
370
     0
100
AcDbLine
 10
220.4866523003
 20
23.6266804656
 30
0.0
 11
220.4866523003
 21
14.5137213527
 31
0.0
  0
LINE
  5
F4
330
1F
100
AcDbEntity
  8
0
  6
Continuous
 62
   179
370
     0
100
AcDbLine
 10
245.702716491
 20
14.5137213527
 30
0.0
 11
245.702716491
 21
9.9586585366
 31
0.0
  0
LINE
  5
F5
330
1F
100
AcDbEntity
  8
0
  6
Continuous
 62
   179
370
     0
100
AcDbLine
 10
257.4265877205
 20
23.6744922625
 30
0.0
 11
257.4265877205
 21
14.6037545655
 31
0.0
  0
LINE
  5
F6
330
1F
100
AcDbEntity
  8
0
  6
Continuous
 62
   179
370
     0
100
AcDbLine
 10
203.18217691
 20
43.3690469585
 30
0.0
 11
203.18217691
 21
14.5137213527
 31
0.0
  0
LINE
  5
F7
330
1F
100
AcDbEntity
  8
0
  6
Continuous
 62
   179
370
     0
100
AcDbLine
 10
203.18217691
 20
14.5137213527
 30
0.0
 11
203.18217691
 21
9.9586585366
 31
0.0
  0
LINE
  5
F8
330
1F
100
AcDbEntity
  8
0
  6
Continuous
 62
   179
370
     0
100
AcDbLine
 10
270.0001458
 20
43.3690469585
 30
0.0
 11
203.18217691
 21
43.3690469585
 31
0.0
  0
LINE
  5
F9
330
1F
100
AcDbEntity
  8
0
  6
Continuous
 62
   179
370
     0
100
AcDbLine
 10
166.7360329466
 20
9.9586585366
 30
0.0
 11
203.18217691
 21
9.9586585366
 31
0.0
  0
LINE
  5
FA
330
1F
100
AcDbEntity
  8
FORMAT
100
AcDbLine
 10
270.0001458
 20
43.3690469585
 30
0.0
 11
270.0001458
 21
9.9586585366
 31
0.0
  0
LINE
  5
FB
330
1F
100
AcDbEntity
  8
FORMAT
100
AcDbLine
 10
270.0001458
 20
9.9586585366
 30
0.0
 11
203.18217691
 21
9.9586585366
 31
0.0
  0
ARC
  5
FC
330
1F
100
AcDbEntity
  8
FORMAT
 62
     5
100
AcDbCircle
 10
242.9984980836
 20
37.9784267108
 30
0.0
 40
0.6570594277632722
100
AcDbArc
 50
0.0
 51
180.0
  0
ARC
  5
FD
330
1F
100
AcDbEntity
  8
FORMAT
 62
     5
100
AcDbCircle
 10
242.9984980836
 20
37.9784267108
 30
0.0
 40
0.6570594277632722
100
AcDbArc
 50
180.0
 51
0.0
  0
ARC
  5
FE
330
1F
100
AcDbEntity
  8
FORMAT
 62
     5
100
AcDbCircle
 10
242.9758757362
 20
37.9504814581
 30
0.0
 40
1.218040415222447
100
AcDbArc
 50
0.0
 51
180.0
  0
ARC
  5
FF
330
1F
100
AcDbEntity
  8
FORMAT
 62
     5
100
AcDbCircle
 10
242.9758757362
 20
37.9504814581
 30
0.0
 40
1.218040415222447
100
AcDbArc
 50
180.0
 51
0.0
  0
ARC
  5
100
330
1F
100
AcDbEntity
  8
FORMAT
 62
     5
100
AcDbCircle
 10
247.3325307823
 20
37.0584188681
 30
0.0
 40
2.219032853856151
100
AcDbArc
 50
93.5375919635
 51
135.037292474
  0
ARC
  5
101
330
1F
100
AcDbEntity
  8
FORMAT
 62
     5
100
AcDbCircle
 10
246.4556391746
 20
36.6643597475
 30
0.0
 40
1.897460869272785
100
AcDbArc
 50
72.4455114491
 51
114.3072251221
  0
ARC
  5
102
330
1F
100
AcDbEntity
  8
FORMAT
 62
     5
100
AcDbCircle
 10
241.9630500811
 20
37.0770490366
 30
0.0
 40
2.219032853856162
100
AcDbArc
 50
93.5375919635
 51
135.037292474
  0
ARC
  5
103
330
1F
100
AcDbEntity
  8
FORMAT
 62
     5
100
AcDbCircle
 10
241.0861584734
 20
36.682989916
 30
0.0
 40
1.897460869272884
100
AcDbArc
 50
72.4455114491
 51
114.3072251221
  0
ARC
  5
104
330
1F
100
AcDbEntity
  8
FORMAT
 62
     5
100
AcDbCircle
 10
238.8305203238
 20
37.0757183102
 30
0.0
 40
2.219032853856187
100
AcDbArc
 50
93.5375919635
 51
135.0372924741
  0
ARC
  5
105
330
1F
100
AcDbEntity
  8
FORMAT
 62
     5
100
AcDbCircle
 10
237.9536287161
 20
36.6816591896
 30
0.0
 40
1.89746086927281
100
AcDbArc
 50
72.4455114491
 51
114.3072251221
  0
ARC
  5
106
330
1F
100
AcDbEntity
  8
FORMAT
 62
     5
370
    15
100
AcDbCircle
 10
238.8305203238
 20
37.0757183102
 30
0.0
 40
2.219032853856187
100
AcDbArc
 50
93.5375919635
 51
135.0372924741
  0
ARC
  5
107
330
1F
100
AcDbEntity
  8
FORMAT
 62
     5
370
    15
100
AcDbCircle
 10
237.9536287161
 20
36.6816591896
 30
0.0
 40
1.89746086927281
100
AcDbArc
 50
72.4455114491
 51
114.3072251221
  0
ARC
  5
108
330
1F
100
AcDbEntity
  8
FORMAT
 62
     5
370
    15
100
AcDbCircle
 10
241.9630500811
 20
37.0770490366
 30
0.0
 40
2.219032853856162
100
AcDbArc
 50
93.5375919635
 51
135.037292474
  0
ARC
  5
109
330
1F
100
AcDbEntity
  8
FORMAT
 62
     5
370
    15
100
AcDbCircle
 10
241.0861584734
 20
36.682989916
 30
0.0
 40
1.897460869272884
100
AcDbArc
 50
72.4455114491
 51
114.3072251221
  0
ARC
  5
10A
330
1F
100
AcDbEntity
  8
FORMAT
 62
     5
370
    15
100
AcDbCircle
 10
247.3325307823
 20
37.0584188681
 30
0.0
 40
2.219032853856151
100
AcDbArc
 50
93.5375919635
 51
135.037292474
  0
ARC
  5
10B
330
1F
100
AcDbEntity
  8
FORMAT
 62
     5
370
    15
100
AcDbCircle
 10
246.4556391746
 20
36.6643597475
 30
0.0
 40
1.897460869272785
100
AcDbArc
 50
72.4455114491
 51
114.3072251221
  0
CIRCLE
  5
10C
330
1F
100
AcDbEntity
  8
FORMAT
 62
     5
370
    15
100
AcDbCircle
 10
242.9758757362
 20
37.9504814581
 30
0.0
 40
1.218040415222599
  0
CIRCLE
  5
10D
330
1F
100
AcDbEntity
  8
FORMAT
 62
     5
370
    15
100
AcDbCircle
 10
242.9984980836
 20
37.9784267108
 30
0.0
 40
0.6570594277630736
  0
MTEXT
  5
10F
330
1F
100
AcDbEntity
  8
FORMAT
100
AcDbMText
 10
263.4307057071
 20
19.2894966898
 30
0.0
 40
2.2612371419
 41
0.0
 71
     2
 72
     1
  1
A
  7
SLDTEXTSTYLE0
 73
     1
 44
1.0
  0
MTEXT
  5
110
330
1F
100
AcDbEntity
  8
FORMAT
100
AcDbMText
 10
243.2242737459
 20
19.2894966898
 30
0.0
 40
2.2612371419
 41
0.0
 71
     2
 72
     1
  1
455630
  7
SLDTEXTSTYLE0
 73
     1
 44
1.0
  0
MTEXT
  5
111
330
1F
100
AcDbEntity
  8
FORMAT
100
AcDbMText
 10
224.6762148859
 20
19.2894966898
 30
0.0
 40
2.2612371419
 41
0.0
 71
     2
 72
     1
  1
A
  7
SLDTEXTSTYLE0
 73
     1
 44
1.0
  0
MTEXT
  5
112
330
1F
100
AcDbEntity
  8
FORMAT
100
AcDbMText
 10
205.6982716504
 20
22.4833706819
 30
0.0
 40
1.4358855171
 41
0.0
 71
     1
 72
     1
  1
SCALE
  7
SLDTEXTSTYLE0
 73
     1
 44
1.0
  0
MTEXT
  5
113
330
1F
100
AcDbEntity
  8
FORMAT
100
AcDbMText
 10
259.830374655
 20
22.5039936938
 30
0.0
 40
1.4565622683
 41
0.0
 71
     1
 72
     1
  1
REV
  7
SLDTEXTSTYLE0
 73
     1
 44
1.0
  0
MTEXT
  5
114
330
1F
100
AcDbEntity
  8
FORMAT
100
AcDbMText
 10
232.1493636441
 20
22.5039936938
 30
0.0
 40
1.4565622683
 41
0.0
 71
     1
 72
     1
  1
DRAWING NO.
  7
SLDTEXTSTYLE0
 73
     1
 44
1.0
  0
MTEXT
  5
115
330
1F
100
AcDbEntity
  8
FORMAT
100
AcDbMText
 10
222.529036827
 20
22.5039936938
 30
0.0
 40
1.4565622683
 41
0.0
 71
     1
 72
     1
  1
SIZE
  7
SLDTEXTSTYLE0
 73
     1
 44
1.0
  0
MTEXT
  5
116
330
1F
100
AcDbEntity
  8
FORMAT
100
AcDbMText
 10
205.6982716504
 20
31.2764036059
 30
0.0
 40
1.4565622683
 41
0.0
 71
     1
 72
     1
  1
TITLE
  7
SLDTEXTSTYLE0
 73
     1
 44
1.0
  0
MTEXT
  5
117
330
1F
100
AcDbEntity
  8
FORMAT
100
AcDbMText
 10
211.6317745204
 20
12.9040765301
 30
0.0
 40
1.4565622683
 41
0.0
 71
     1
 72
     1
  1
DO NOT SCALE DRAWING
  7
SLDTEXTSTYLE0
 73
     1
 44
1.0
  0
INSERT
  5
11D
330
1F
100
AcDbEntity
  8
FORMAT
100
AcDbBlockReference
  2
SW_NOTE_5
 10
218.851422086
 20
28.1762665872
 30
0.0
  0
MTEXT
  5
11E
330
1F
100
AcDbEntity
  8
FORMAT
100
AcDbMText
 10
257.7905157598
 20
13.3140036615
 30
0.0
 40
1.8520833333
 41
0.0
 71
     2
 72
     1
  1
SHEET 3 OF 4
  7
SLDTEXTSTYLE0
 73
     1
 44
1.0
  0
MTEXT
  5
11F
330
1F
100
AcDbEntity
  8
FORMAT
100
AcDbMText
 10
212.1206198748
 20
20.0714445725
 30
0.0
 40
2.2612371419
 41
0.0
 71
     2
 72
     1
  1
18:1
  7
SLDTEXTSTYLE0
 73
     1
 44
1.0
  0
MTEXT
  5
121
330
1F
100
AcDbEntity
  8
FORMAT
 62
     5
100
AcDbMText
 10
227.9418745116
 20
35.2815883901
 30
0.0
 40
1.5875
 41
0.0
 71
     1
 72
     1
  1
Semiconductor
  7
SLDTEXTSTYLE1
 73
     1
 44
1.0
  0
MTEXT
  5
123
330
1F
100
AcDbEntity
  8
FORMAT
 62
     5
100
AcDbMText
 10
245.0042687724
 20
35.7476523085
 30
0.0
 40
0.79375
 41
0.0
 71
     1
 72
     1
  1
TM
  7
SLDTEXTSTYLE2
 73
     1
 44
1.0
  0
LWPOLYLINE
  5
124
330
1F
100
AcDbEntity
  8
0
  6
Continuous
 62
     7
370
     0
100
AcDbPolyline
 90
      333
 70
   128
 43
0.0
 10
188.7750901945
 20
184.8937741419
 10
188.6227779753
 20
184.89503329
 10
187.4961868591
 20
184.89503329
 10
183.0777802236
 20
184.89503329
 10
178.6593735881
 20
184.89503329
 10
174.2409669526
 20
184.89503329
 10
169.822560317
 20
184.89503329
 10
165.4041536815
 20
184.89503329
 10
160.985747046
 20
184.89503329
 10
156.5673422731
 20
184.89503329
 10
152.1489356376
 20
184.89503329
 10
147.7305290021
 20
184.89503329
 10
143.3121223665
 20
184.89503329
 10
138.893715731
 20
184.89503329
 10
134.4753090955
 20
184.89503329
 10
130.05690246
 20
184.89503329
 10
125.6384958244
 20
184.89503329
 10
121.2200891889
 20
184.89503329
 10
116.8016825534
 20
184.89503329
 10
112.3832759179
 20
184.89503329
 10
107.9648692824
 20
184.89503329
 10
103.5464645095
 20
184.89503329
 10
99.128057874
 20
184.89503329
 10
94.7096512384
 20
184.89503329
 10
90.2912446029
 20
184.89503329
 10
85.8728379674
 20
184.89503329
 10
81.4544313319
 20
184.89503329
 10
77.0360246963
 20
184.89503329
 10
74.7998484142
 20
184.89503329
 10
73.742309279
 20
183.8841981192
 10
71.8422659404
 20
182.0680632194
 10
69.8899679549
 20
180.2019833525
 10
67.9968387551
 20
178.3924608429
 10
67.1061069436
 20
177.5410643717
 10
67.1061069436
 20
174.9651155372
 10
67.1061069436
 20
170.5467089017
 10
67.1061069436
 20
166.1283022662
 10
67.1061069436
 20
161.7098956307
 10
67.1061069436
 20
157.2914889952
 10
67.1061069436
 20
152.8730823596
 10
67.1061069436
 20
148.4546757241
 10
67.1061069436
 20
144.0362709512
 10
67.1061069436
 20
139.6178643157
 10
67.1061069436
 20
135.1994576802
 10
67.1061069436
 20
130.7810510447
 10
67.1061069436
 20
126.3626444091
 10
67.1061069436
 20
121.9442377736
 10
67.1061069436
 20
117.5258311381
 10
67.1061069436
 20
113.1074245026
 10
67.1061069436
 20
108.689017867
 10
67.1061069436
 20
104.2706112315
 10
67.1061069436
 20
99.852204596
 10
67.1061069436
 20
95.4337979605
 10
67.1061069436
 20
91.0153931876
 10
67.1061069436
 20
86.5969865521
 10
67.1061069436
 20
82.1785799166
 10
67.1061069436
 20
77.760173281
 10
67.1061069436
 20
73.3417666455
 10
67.1061069436
 20
68.92336001
 10
67.1061069436
 20
64.5049533745
 10
67.1061069436
 20
63.3783622583
 10
67.1096310682
 20
63.1241037448
 10
67.1202034421
 20
62.8703518709
 10
67.137809164
 20
62.6172854503
 10
67.1624407835
 20
62.3651093741
 10
67.1805531449
 20
62.2145964702
 10
67.1805531449
 20
62.2145480414
 10
67.216382987
 20
61.9641936322
 10
67.2591716714
 20
61.715225031
 10
67.3088893957
 20
61.4678359528
 10
67.3655063577
 20
61.2222163876
 10
67.4026922054
 20
61.0760546227
 10
67.4026922054
 20
61.0760471721
 10
67.4702391691
 20
60.8336462577
 10
67.54455126
 20
60.5934954186
 10
67.5491259165
 20
60.5794659754
 10
67.6305458612
 20
60.3419079383
 10
67.7186117239
 20
60.1069799562
 10
67.7689254947
 20
59.9812365075
 10
67.7689329452
 20
59.9812104305
 10
67.8671017952
 20
59.7506857415
 10
67.9717377491
 20
59.5232418676
 10
68.0827663011
 20
59.299061348
 10
68.2000905938
 20
59.0783080955
 10
68.2733298011
 20
58.9478074511
 10
68.2733372517
 20
58.9478000005
 10
68.4005484648
 20
58.7328805526
 10
68.5338169999
 20
58.5218242307
 10
68.6730310984
 20
58.3147912224
 10
68.7824950285
 20
58.1606089075
 10
68.9077392883
 20
57.9925387104
 10
68.9077616401
 20
57.9925051828
 10
69.0619514055
 20
57.7966703971
 10
69.2216918535
 20
57.6054177185
 10
69.3868563242
 20
57.4188924332
 10
69.5573256082
 20
57.2372323771
 10
69.6618945069
 20
57.1308306356
 10
69.6619019575
 20
57.130823185
 10
69.8405817814
 20
56.9572395583
 10
70.0242087908
 20
56.7888862391
 10
70.2126526005
 20
56.6258824368
 10
70.4057567484
 20
56.4683473607
 10
70.5235765047
 20
56.3766903182
 10
70.5236100323
 20
56.3766679664
 10
70.6916802294
 20
56.2514237066
 10
70.8955541916
 20
56.107754161
 10
71.1035706766
 20
55.9699631234
 10
71.3155806727
 20
55.8381549021
 10
71.4788713224
 20
55.7422659298
 10
71.478878773
 20
55.7422584792
 10
71.6975011594
 20
55.6212088962
 10
71.9196513958
 20
55.5064028998
 10
72.145161844
 20
55.3979298969
 10
72.3738611407
 20
55.2958792945
 10
72.5122817523
 20
55.2378616234
 10
72.5123078294
 20
55.2378541728
 10
72.7457382448
 20
55.146219482
 10
72.9819030232
 20
55.0612009068
 10
73.1105372972
 20
55.0180545946
 10
73.3505503006
 20
54.9433476229
 10
73.5928245551
 20
54.8754057785
 10
73.607118494
 20
54.8716208835
 10
73.6071259446
 20
54.8716208835
 10
73.8515943951
 20
54.8108986517
 10
74.0979441173
 20
54.7570458551
 10
74.3459888465
 20
54.7100997468
 10
74.5955348678
 20
54.6700975796
 10
74.7456193633
 20
54.649481823
 10
74.7456677921
 20
54.649481823
 10
74.9972180195
 20
54.6206480761
 10
75.2497740753
 20
54.5988253256
 10
75.5031422443
 20
54.5840433737
 10
75.757121361
 20
54.5762947698
 10
75.9094335801
 20
54.5750356217
 10
77.0360246963
 20
54.5750356217
 10
81.4544313319
 20
54.5750356217
 10
85.8728379674
 20
54.5750356217
 10
90.2912446029
 20
54.5750356217
 10
94.7096512384
 20
54.5750356217
 10
99.128057874
 20
54.5750356217
 10
103.5464645095
 20
54.5750356217
 10
107.9648692824
 20
54.5750356217
 10
112.3832759179
 20
54.5750356217
 10
116.8016825534
 20
54.5750356217
 10
121.2200891889
 20
54.5750356217
 10
125.6384958244
 20
54.5750356217
 10
130.05690246
 20
54.5750356217
 10
134.4753090955
 20
54.5750356217
 10
138.893715731
 20
54.5750356217
 10
143.3121223665
 20
54.5750356217
 10
147.7305290021
 20
54.5750356217
 10
152.1489356376
 20
54.5750356217
 10
156.5673422731
 20
54.5750356217
 10
160.985747046
 20
54.5750356217
 10
165.4041536815
 20
54.5750356217
 10
169.822560317
 20
54.5750356217
 10
174.2409669526
 20
54.5750356217
 10
178.6593735881
 20
54.5750356217
 10
183.0777802236
 20
54.5750356217
 10
187.4961868591
 20
54.5750356217
 10
188.6227779753
 20
54.5750356217
 10
188.8770364888
 20
54.5785597463
 10
189.1307883627
 20
54.5891321202
 10
189.3838547833
 20
54.6067378422
 10
189.6360308595
 20
54.6313694616
 10
189.7865437634
 20
54.649481823
 10
189.7865921922
 20
54.649481823
 10
190.0369466014
 20
54.6853116651
 10
190.2859152026
 20
54.7281003495
 10
190.5333042807
 20
54.7778180738
 10
190.778923846
 20
54.8344350358
 10
190.9250856109
 20
54.8716208835
 10
190.9250930614
 20
54.8716208835
 10
191.1674939759
 20
54.9391678472
 10
191.407644815
 20
55.0134799381
 10
191.4216742582
 20
55.0180545946
 10
191.6592322953
 20
55.0994745394
 10
191.8941602774
 20
55.187540402
 10
192.0199037261
 20
55.2378541728
 10
192.0199298031
 20
55.2378616234
 10
192.2504544921
 20
55.3360304733
 10
192.477898366
 20
55.4406664272
 10
192.7020788855
 20
55.5516949793
 10
192.922832138
 20
55.6690192719
 10
193.0533327825
 20
55.7422584792
 10
193.0533402331
 20
55.7422659298
 10
193.268259681
 20
55.8694771429
 10
193.4793160028
 20
56.002745678
 10
193.6863490112
 20
56.1419597765
 10
193.840531326
 20
56.2514237066
 10
194.0086015231
 20
56.3766679664
 10
194.0086350508
 20
56.3766903182
 10
194.2044698365
 20
56.5308800836
 10
194.3957225151
 20
56.6906205316
 10
194.5822478003
 20
56.8557850023
 10
194.7639078565
 20
57.0262542864
 10
194.870309598
 20
57.130823185
 10
194.8703170485
 20
57.1308306356
 10
195.0439006753
 20
57.3095104595
 10
195.2122539945
 20
57.4931374689
 10
195.3752577968
 20
57.6815812786
 10
195.5327928729
 20
57.8746854265
 10
195.6244499154
 20
57.9925051828
 10
195.6244722671
 20
57.9925387104
 10
195.749716527
 20
58.1606089075
 10
195.8933860726
 20
58.3644828697
 10
196.0311771102
 20
58.5724993547
 10
196.1629853315
 20
58.7845093509
 10
196.2588743038
 20
58.9478000005
 10
196.2588817544
 20
58.9478074511
 10
196.3799313373
 20
59.1664298375
 10
196.4947373338
 20
59.3885800739
 10
196.6032103367
 20
59.6140905221
 10
196.7052609391
 20
59.8427898188
 10
196.7632786102
 20
59.9812104305
 10
196.7632860608
 20
59.9812365075
 10
196.8549207516
 20
60.2146669229
 10
196.9399393268
 20
60.4508317014
 10
196.983085639
 20
60.5794659754
 10
197.0577926106
 20
60.8194789787
 10
197.1257344551
 20
61.0617532333
 10
197.12951935
 20
61.0760471721
 10
197.12951935
 20
61.0760546227
 10
197.1902415819
 20
61.3205230733
 10
197.2440943785
 20
61.5668727954
 10
197.2910404868
 20
61.8149175247
 10
197.331042654
 20
62.0644635459
 10
197.3516584105
 20
62.2145480414
 10
197.3516584105
 20
62.2145964702
 10
197.3804921574
 20
62.4661466976
 10
197.402314908
 20
62.7187027534
 10
197.4170968599
 20
62.9720709225
 10
197.4248454637
 20
63.2260500391
 10
197.4261046119
 20
63.3783622583
 10
197.4261046119
 20
64.5049533745
 10
197.4261046119
 20
68.92336001
 10
197.4261046119
 20
73.3417666455
 10
197.4261046119
 20
77.760173281
 10
197.4261046119
 20
82.1785799166
 10
197.4261046119
 20
86.5969865521
 10
197.4261046119
 20
91.0153931876
 10
197.4261046119
 20
95.4337979605
 10
197.4261046119
 20
99.852204596
 10
197.4261046119
 20
104.2706112315
 10
197.4261046119
 20
108.689017867
 10
197.4261046119
 20
113.1074245026
 10
197.4261046119
 20
117.5258311381
 10
197.4261046119
 20
121.9442377736
 10
197.4261046119
 20
126.3626444091
 10
197.4261046119
 20
130.7810510447
 10
197.4261046119
 20
135.1994576802
 10
197.4261046119
 20
139.6178643157
 10
197.4261046119
 20
144.0362709512
 10
197.4261046119
 20
148.4546757241
 10
197.4261046119
 20
152.8730823596
 10
197.4261046119
 20
157.2914889952
 10
197.4261046119
 20
161.7098956307
 10
197.4261046119
 20
166.1283022662
 10
197.4261046119
 20
170.5467089017
 10
197.4261046119
 20
174.9651155372
 10
197.4261046119
 20
176.0917066534
 10
197.4225804872
 20
176.3459651669
 10
197.4120081134
 20
176.5997170409
 10
197.3944023914
 20
176.8527834614
 10
197.369770772
 20
177.1049595376
 10
197.3516584105
 20
177.2554724415
 10
197.3516584105
 20
177.2555208703
 10
197.3158285684
 20
177.5058752795
 10
197.2730398841
 20
177.7548438807
 10
197.2233221598
 20
178.0022329589
 10
197.1667051978
 20
178.2478525241
 10
197.12951935
 20
178.394014289
 10
197.12951935
 20
178.3940217396
 10
197.0619723863
 20
178.636422654
 10
196.9876602955
 20
178.8765734931
 10
196.983085639
 20
178.8906029363
 10
196.9016656942
 20
179.1281609734
 10
196.8135998316
 20
179.3630889555
 10
196.7632860608
 20
179.4888324042
 10
196.7632786102
 20
179.4888584812
 10
196.6651097603
 20
179.7193831702
 10
196.5604738064
 20
179.9468270441
 10
196.4494452543
 20
180.1710075637
 10
196.3321209617
 20
180.3917608162
 10
196.2588817544
 20
180.5222614606
 10
196.2588743038
 20
180.5222689112
 10
196.1316630907
 20
180.7371883591
 10
195.9983945556
 20
180.948244681
 10
195.8591804571
 20
181.1552776893
 10
195.749716527
 20
181.3094600042
 10
195.6244722671
 20
181.4775302013
 10
195.6244499154
 20
181.4775637289
 10
195.4702601499
 20
181.6733985146
 10
195.3105197019
 20
181.8646511932
 10
195.1453552313
 20
182.0511764785
 10
194.9748859472
 20
182.2328365346
 10
194.8703170485
 20
182.3392382761
 10
194.870309598
 20
182.3392457267
 10
194.6916297741
 20
182.5128293534
 10
194.5080027647
 20
182.6811826726
 10
194.3195589549
 20
182.8441864749
 10
194.126454807
 20
183.001721551
 10
194.0086350508
 20
183.0933785935
 10
194.0086015231
 20
183.0934009453
 10
193.840531326
 20
183.2186452051
 10
193.6366573639
 20
183.3623147507
 10
193.4286408789
 20
183.5001057883
 10
193.2166308827
 20
183.6319140096
 10
193.0533402331
 20
183.7278029819
 10
193.0533327825
 20
183.7278104325
 10
192.834710396
 20
183.8488600155
 10
192.6125601597
 20
183.9636660119
 10
192.3870497115
 20
184.0721390148
 10
192.1583504147
 20
184.1741896172
 10
192.0199298031
 20
184.2322072883
 10
192.0199037261
 20
184.2322147389
 10
191.7864733107
 20
184.3238494297
 10
191.5503085322
 20
184.4088680049
 10
191.4216742582
 20
184.4520143171
 10
191.1816612549
 20
184.5267212888
 10
190.9393870003
 20
184.5946631332
 10
190.9250930614
 20
184.5984480282
 10
190.9250856109
 20
184.5984480282
 10
190.6806171603
 20
184.65917026
 10
190.4342674382
 20
184.7130230566
 10
190.1862227089
 20
184.7599691649
 10
189.9366766877
 20
184.7999713321
 10
189.7865921922
 20
184.8205870887
 10
189.7865437634
 20
184.8205870887
 10
189.534993536
 20
184.8494208356
 10
189.2824374802
 20
184.8712435861
 10
189.0290693111
 20
184.886025538
 10
188.7750901945
 20
184.8937741419
  0
LINE
  5
125
330
1F
100
AcDbEntity
  8
0
  6
Continuous
 62
     7
370
    15
100
AcDbLine
 10
67.1061069436
 20
63.3783622583
 30
0.0
 11
67.1805531449
 21
62.2145964702
 31
0.0
  0
LWPOLYLINE
  5
126
330
1F
100
AcDbEntity
  8
0
  6
Continuous
 62
     7
370
    15
100
AcDbPolyline
 90
        3
 70
   128
 43
0.0
 10
67.1805531449
 20
62.2145703932
 10
67.4026922054
 20
61.0760471721
 10
67.7689254947
 20
59.9812365075
  0
LWPOLYLINE
  5
127
330
1F
100
AcDbEntity
  8
0
  6
Continuous
 62
     7
370
    15
100
AcDbPolyline
 90
        3
 70
   128
 43
0.0
 10
67.7689254947
 20
59.9812216063
 10
68.2733298011
 20
58.9478074511
 10
68.9077616401
 20
57.9925051828
  0
LWPOLYLINE
  5
128
330
1F
100
AcDbEntity
  8
0
  6
Continuous
 62
     7
370
    15
100
AcDbPolyline
 90
        3
 70
   128
 43
0.0
 10
68.9077467389
 20
57.9925238093
 10
69.6618945069
 20
57.1308306356
 10
70.5236100323
 20
56.3766679664
  0
LWPOLYLINE
  5
129
330
1F
100
AcDbEntity
  8
0
  6
Continuous
 62
     7
370
    15
100
AcDbPolyline
 90
        3
 70
   128
 43
0.0
 10
70.5235951311
 20
56.376675417
 10
71.4788713224
 20
55.7422659298
 10
72.5122817523
 20
55.2378616234
  0
LWPOLYLINE
  5
12A
330
1F
100
AcDbEntity
  8
0
  6
Continuous
 62
     7
370
    15
100
AcDbPolyline
 90
        3
 70
   128
 43
0.0
 10
72.5122929282
 20
55.2378541728
 10
73.6071259446
 20
54.8716208835
 10
74.7456193633
 20
54.649481823
  0
LINE
  5
12B
330
1F
100
AcDbEntity
  8
0
  6
Continuous
 62
     7
370
    15
100
AcDbLine
 10
74.745641715
 20
54.649481823
 30
0.0
 11
75.9094075031
 21
54.5750356217
 31
0.0
  0
LINE
  5
12C
330
1F
100
AcDbEntity
  8
0
  6
Continuous
 62
     7
370
    15
100
AcDbLine
 10
197.4261046119
 20
176.0917066534
 30
0.0
 11
197.3516584105
 21
177.2554724415
 31
0.0
  0
LWPOLYLINE
  5
12D
330
1F
100
AcDbEntity
  8
0
  6
Continuous
 62
     7
370
    15
100
AcDbPolyline
 90
        3
 70
   128
 43
0.0
 10
197.3516584105
 20
177.2554985185
 10
197.12951935
 20
178.3940217396
 10
196.7632860608
 20
179.4888324042
  0
LWPOLYLINE
  5
12E
330
1F
100
AcDbEntity
  8
0
  6
Continuous
 62
     7
370
    15
100
AcDbPolyline
 90
        3
 70
   128
 43
0.0
 10
196.7632860608
 20
179.4888473054
 10
196.2588817544
 20
180.5222614606
 10
195.6244499154
 20
181.4775637289
  0
LWPOLYLINE
  5
12F
330
1F
100
AcDbEntity
  8
0
  6
Continuous
 62
     7
370
    15
100
AcDbPolyline
 90
        3
 70
   128
 43
0.0
 10
195.6244648166
 20
181.4775451024
 10
194.8703170485
 20
182.3392382761
 10
194.0086015231
 20
183.0934009453
  0
LWPOLYLINE
  5
130
330
1F
100
AcDbEntity
  8
0
  6
Continuous
 62
     7
370
    15
100
AcDbPolyline
 90
        3
 70
   128
 43
0.0
 10
194.0086164243
 20
183.0933934947
 10
193.0533402331
 20
183.7278029819
 10
192.0199298031
 20
184.2322072883
  0
LWPOLYLINE
  5
131
330
1F
100
AcDbEntity
  8
0
  6
Continuous
 62
     7
370
    15
100
AcDbPolyline
 90
        3
 70
   128
 43
0.0
 10
192.0199186273
 20
184.2322147389
 10
190.9250856109
 20
184.5984480282
 10
189.7865921922
 20
184.8205870887
  0
LINE
  5
132
330
1F
100
AcDbEntity
  8
0
  6
Continuous
 62
     7
370
    15
100
AcDbLine
 10
189.7865698404
 20
184.8205870887
 30
0.0
 11
188.6228040523
 21
184.89503329
 31
0.0
  0
LINE
  5
133
330
1F
100
AcDbEntity
  8
0
  6
Continuous
 62
     7
370
    15
100
AcDbLine
 10
188.6227779753
 20
54.5750356217
 30
0.0
 11
189.7865437634
 21
54.649481823
 31
0.0
  0
LWPOLYLINE
  5
134
330
1F
100
AcDbEntity
  8
0
  6
Continuous
 62
     7
370
    15
100
AcDbPolyline
 90
        3
 70
   128
 43
0.0
 10
189.7865698404
 20
54.649481823
 10
190.9250930614
 20
54.8716208835
 10
192.0199037261
 20
55.2378541728
  0
LWPOLYLINE
  5
135
330
1F
100
AcDbEntity
  8
0
  6
Continuous
 62
     7
370
    15
100
AcDbPolyline
 90
        3
 70
   128
 43
0.0
 10
192.0199186273
 20
55.2378541728
 10
193.0533327825
 20
55.7422584792
 10
194.0086350508
 20
56.3766903182
  0
LWPOLYLINE
  5
136
330
1F
100
AcDbEntity
  8
0
  6
Continuous
 62
     7
370
    15
100
AcDbPolyline
 90
        3
 70
   128
 43
0.0
 10
194.0086164243
 20
56.376675417
 10
194.870309598
 20
57.130823185
 10
195.6244722671
 20
57.9925387104
  0
LWPOLYLINE
  5
137
330
1F
100
AcDbEntity
  8
0
  6
Continuous
 62
     7
370
    15
100
AcDbPolyline
 90
        3
 70
   128
 43
0.0
 10
195.6244648166
 20
57.9925238093
 10
196.2588743038
 20
58.9478000005
 10
196.7632786102
 20
59.9812104305
  0
LWPOLYLINE
  5
138
330
1F
100
AcDbEntity
  8
0
  6
Continuous
 62
     7
370
    15
100
AcDbPolyline
 90
        3
 70
   128
 43
0.0
 10
196.7632860608
 20
59.9812216063
 10
197.12951935
 20
61.0760546227
 10
197.3516584105
 20
62.2145480414
  0
LINE
  5
139
330
1F
100
AcDbEntity
  8
0
  6
Continuous
 62
     7
370
    15
100
AcDbLine
 10
197.3516584105
 20
62.2145703932
 30
0.0
 11
197.4261046119
 21
63.3783361812
 31
0.0
  0
LINE
  5
13A
330
1F
100
AcDbEntity
  8
0
  6
Continuous
 62
     7
370
    15
100
AcDbLine
 10
183.903602577
 20
61.7750345667
 30
0.0
 11
180.0786048837
 21
61.7750345667
 31
0.0
  0
LINE
  5
13B
330
1F
100
AcDbEntity
  8
0
  6
Continuous
 62
     7
370
    15
100
AcDbLine
 10
180.0786048837
 20
61.7750345667
 30
0.0
 11
187.4961868591
 21
54.5750356217
 31
0.0
  0
LINE
  5
13C
330
1F
100
AcDbEntity
  8
0
  6
Continuous
 62
     7
370
    15
100
AcDbLine
 10
183.0777802236
 20
54.5750356217
 30
0.0
 11
176.2536034651
 21
61.7750345667
 31
0.0
  0
LINE
  5
13D
330
1F
100
AcDbEntity
  8
0
  6
Continuous
 62
     7
370
    15
100
AcDbLine
 10
176.2536034651
 20
61.7750345667
 30
0.0
 11
172.4286057718
 21
61.7750345667
 31
0.0
  0
LINE
  5
13E
330
1F
100
AcDbEntity
  8
0
  6
Continuous
 62
     7
370
    15
100
AcDbLine
 10
172.4286057718
 20
61.7750345667
 30
0.0
 11
178.6593735881
 21
54.5750356217
 31
0.0
  0
LINE
  5
13F
330
1F
100
AcDbEntity
  8
0
  6
Continuous
 62
     7
370
    15
100
AcDbLine
 10
174.2409669526
 20
54.5750356217
 30
0.0
 11
168.6036043532
 21
61.7750345667
 31
0.0
  0
LINE
  5
140
330
1F
100
AcDbEntity
  8
0
  6
Continuous
 62
     7
370
    15
100
AcDbLine
 10
168.6036043532
 20
61.7750345667
 30
0.0
 11
164.7786066599
 21
61.7750345667
 31
0.0
  0
LINE
  5
141
330
1F
100
AcDbEntity
  8
0
  6
Continuous
 62
     7
370
    15
100
AcDbLine
 10
164.7786066599
 20
61.7750345667
 30
0.0
 11
169.822560317
 21
54.5750356217
 31
0.0
  0
LINE
  5
142
330
1F
100
AcDbEntity
  8
0
  6
Continuous
 62
     7
370
    15
100
AcDbLine
 10
165.4041536815
 20
54.5750356217
 30
0.0
 11
160.9536052413
 21
61.7750345667
 31
0.0
  0
LINE
  5
143
330
1F
100
AcDbEntity
  8
0
  6
Continuous
 62
     7
370
    15
100
AcDbLine
 10
160.9536052413
 20
61.7750345667
 30
0.0
 11
157.1286056853
 21
61.7750345667
 31
0.0
  0
LINE
  5
144
330
1F
100
AcDbEntity
  8
0
  6
Continuous
 62
     7
370
    15
100
AcDbLine
 10
157.1286056853
 20
61.7750345667
 30
0.0
 11
160.985747046
 21
54.5750356217
 31
0.0
  0
LINE
  5
145
330
1F
100
AcDbEntity
  8
0
  6
Continuous
 62
     7
370
    15
100
AcDbLine
 10
156.5673422731
 20
54.5750356217
 30
0.0
 11
153.3036061294
 21
61.7750345667
 31
0.0
  0
LINE
  5
146
330
1F
100
AcDbEntity
  8
0
  6
Continuous
 62
     7
370
    15
100
AcDbLine
 10
153.3036061294
 20
61.7750345667
 30
0.0
 11
149.4786065735
 21
61.7750345667
 31
0.0
  0
LINE
  5
147
330
1F
100
AcDbEntity
  8
0
  6
Continuous
 62
     7
370
    15
100
AcDbLine
 10
149.4786065735
 20
61.7750345667
 30
0.0
 11
152.1489356376
 21
54.5750356217
 31
0.0
  0
LINE
  5
148
330
1F
100
AcDbEntity
  8
0
  6
Continuous
 62
     7
370
    15
100
AcDbLine
 10
147.7305290021
 20
54.5750356217
 30
0.0
 11
145.6536060862
 21
61.7750345667
 31
0.0
  0
LINE
  5
149
330
1F
100
AcDbEntity
  8
0
  6
Continuous
 62
     7
370
    15
100
AcDbLine
 10
145.6536060862
 20
61.7750345667
 30
0.0
 11
141.8286065302
 21
61.7750345667
 31
0.0
  0
LINE
  5
14A
330
1F
100
AcDbEntity
  8
0
  6
Continuous
 62
     7
370
    15
100
AcDbLine
 10
141.8286065302
 20
61.7750345667
 30
0.0
 11
143.3121223665
 21
54.5750356217
 31
0.0
  0
LINE
  5
14B
330
1F
100
AcDbEntity
  8
0
  6
Continuous
 62
     7
370
    15
100
AcDbLine
 10
138.893715731
 20
54.5750356217
 30
0.0
 11
138.003606043
 21
61.7750345667
 31
0.0
  0
LINE
  5
14C
330
1F
100
AcDbEntity
  8
0
  6
Continuous
 62
     7
370
    15
100
AcDbLine
 10
138.003606043
 20
61.7750345667
 30
0.0
 11
134.1786057885
 21
61.7750345667
 31
0.0
  0
LINE
  5
14D
330
1F
100
AcDbEntity
  8
0
  6
Continuous
 62
     7
370
    15
100
AcDbLine
 10
134.1786057885
 20
61.7750345667
 30
0.0
 11
134.4753090955
 21
54.5750356217
 31
0.0
  0
LINE
  5
14E
330
1F
100
AcDbEntity
  8
0
  6
Continuous
 62
     7
370
    15
100
AcDbLine
 10
130.05690246
 20
54.5750356217
 30
0.0
 11
130.3536057669
 21
61.7750345667
 31
0.0
  0
LINE
  5
14F
330
1F
100
AcDbEntity
  8
0
  6
Continuous
 62
     7
370
    15
100
AcDbLine
 10
130.3536057669
 20
61.7750345667
 30
0.0
 11
126.5286055125
 21
61.7750345667
 31
0.0
  0
LINE
  5
150
330
1F
100
AcDbEntity
  8
0
  6
Continuous
 62
     7
370
    15
100
AcDbLine
 10
126.5286055125
 20
61.7750345667
 30
0.0
 11
125.6384958244
 21
54.5750356217
 31
0.0
  0
LINE
  5
151
330
1F
100
AcDbEntity
  8
0
  6
Continuous
 62
     7
370
    15
100
AcDbLine
 10
121.2200891889
 20
54.5750356217
 30
0.0
 11
122.7036050252
 21
61.7750345667
 31
0.0
  0
LINE
  5
152
330
1F
100
AcDbEntity
  8
0
  6
Continuous
 62
     7
370
    15
100
AcDbLine
 10
122.7036050252
 20
61.7750345667
 30
0.0
 11
118.8786054693
 21
61.7750345667
 31
0.0
  0
LINE
  5
153
330
1F
100
AcDbEntity
  8
0
  6
Continuous
 62
     7
370
    15
100
AcDbLine
 10
118.8786054693
 20
61.7750345667
 30
0.0
 11
116.8016825534
 21
54.5750356217
 31
0.0
  0
LINE
  5
154
330
1F
100
AcDbEntity
  8
0
  6
Continuous
 62
     7
370
    15
100
AcDbLine
 10
112.3832759179
 20
54.5750356217
 30
0.0
 11
115.053604982
 21
61.7750345667
 31
0.0
  0
LINE
  5
155
330
1F
100
AcDbEntity
  8
0
  6
Continuous
 62
     7
370
    15
100
AcDbLine
 10
115.053604982
 20
61.7750345667
 30
0.0
 11
111.2286054261
 21
61.7750345667
 31
0.0
  0
LINE
  5
156
330
1F
100
AcDbEntity
  8
0
  6
Continuous
 62
     7
370
    15
100
AcDbLine
 10
111.2286054261
 20
61.7750345667
 30
0.0
 11
107.9648692824
 21
54.5750356217
 31
0.0
  0
LINE
  5
157
330
1F
100
AcDbEntity
  8
0
  6
Continuous
 62
     7
370
    15
100
AcDbLine
 10
103.5464645095
 20
54.5750356217
 30
0.0
 11
107.4036058701
 21
61.7750345667
 31
0.0
  0
LINE
  5
158
330
1F
100
AcDbEntity
  8
0
  6
Continuous
 62
     7
370
    15
100
AcDbLine
 10
107.4036058701
 20
61.7750345667
 30
0.0
 11
103.5786063142
 21
61.7750345667
 31
0.0
  0
LINE
  5
159
330
1F
100
AcDbEntity
  8
0
  6
Continuous
 62
     7
370
    15
100
AcDbLine
 10
103.5786063142
 20
61.7750345667
 30
0.0
 11
99.128057874
 21
54.5750356217
 31
0.0
  0
LINE
  5
15A
330
1F
100
AcDbEntity
  8
0
  6
Continuous
 62
     7
370
    15
100
AcDbLine
 10
94.7096512384
 20
54.5750356217
 30
0.0
 11
99.7536048956
 21
61.7750345667
 31
0.0
  0
LINE
  5
15B
330
1F
100
AcDbEntity
  8
0
  6
Continuous
 62
     7
370
    15
100
AcDbLine
 10
99.7536048956
 20
61.7750345667
 30
0.0
 11
95.9286072023
 21
61.7750345667
 31
0.0
  0
LINE
  5
15C
330
1F
100
AcDbEntity
  8
0
  6
Continuous
 62
     7
370
    15
100
AcDbLine
 10
95.9286072023
 20
61.7750345667
 30
0.0
 11
90.2912446029
 21
54.5750356217
 31
0.0
  0
LINE
  5
15D
330
1F
100
AcDbEntity
  8
0
  6
Continuous
 62
     7
370
    15
100
AcDbLine
 10
85.8728379674
 20
54.5750356217
 30
0.0
 11
92.1036057837
 21
61.7750345667
 31
0.0
  0
LINE
  5
15E
330
1F
100
AcDbEntity
  8
0
  6
Continuous
 62
     7
370
    15
100
AcDbLine
 10
92.1036057837
 20
61.7750345667
 30
0.0
 11
88.2786080904
 21
61.7750345667
 31
0.0
  0
LINE
  5
15F
330
1F
100
AcDbEntity
  8
0
  6
Continuous
 62
     7
370
    15
100
AcDbLine
 10
88.2786080904
 20
61.7750345667
 30
0.0
 11
81.4544313319
 21
54.5750356217
 31
0.0
  0
LINE
  5
160
330
1F
100
AcDbEntity
  8
0
  6
Continuous
 62
     7
370
    15
100
AcDbLine
 10
77.0360246963
 20
54.5750356217
 30
0.0
 11
84.4536066718
 21
61.7750345667
 31
0.0
  0
LINE
  5
161
330
1F
100
AcDbEntity
  8
0
  6
Continuous
 62
     7
370
    15
100
AcDbLine
 10
84.4536066718
 20
61.7750345667
 30
0.0
 11
80.6286089785
 21
61.7750345667
 31
0.0
  0
LINE
  5
162
330
1F
100
AcDbEntity
  8
0
  6
Continuous
 62
     7
370
    15
100
AcDbLine
 10
80.6286089785
 20
61.7750345667
 30
0.0
 11
73.1105372972
 21
55.0180545946
 31
0.0
  0
LINE
  5
163
330
1F
100
AcDbEntity
  8
0
  6
Continuous
 62
     7
370
    15
100
AcDbLine
 10
67.5491259165
 20
60.5794659754
 30
0.0
 11
74.3061058886
 21
68.0975376566
 31
0.0
  0
LINE
  5
164
330
1F
100
AcDbEntity
  8
0
  6
Continuous
 62
     7
370
    15
100
AcDbLine
 10
74.3061058886
 20
68.0975376566
 30
0.0
 11
74.3061058886
 21
71.9225353499
 31
0.0
  0
LINE
  5
165
330
1F
100
AcDbEntity
  8
0
  6
Continuous
 62
     7
370
    15
100
AcDbLine
 10
74.3061058886
 20
71.9225353499
 30
0.0
 11
67.1061069436
 21
64.5049533745
 31
0.0
  0
LINE
  5
166
330
1F
100
AcDbEntity
  8
0
  6
Continuous
 62
     7
370
    15
100
AcDbLine
 10
67.1061069436
 20
68.92336001
 30
0.0
 11
74.3061058886
 21
75.7475367685
 31
0.0
  0
LINE
  5
167
330
1F
100
AcDbEntity
  8
0
  6
Continuous
 62
     7
370
    15
100
AcDbLine
 10
74.3061058886
 20
75.7475367685
 30
0.0
 11
74.3061058886
 21
79.5725344618
 31
0.0
  0
LINE
  5
168
330
1F
100
AcDbEntity
  8
0
  6
Continuous
 62
     7
370
    15
100
AcDbLine
 10
74.3061058886
 20
79.5725344618
 30
0.0
 11
67.1061069436
 21
73.3417666455
 31
0.0
  0
LINE
  5
169
330
1F
100
AcDbEntity
  8
0
  6
Continuous
 62
     7
370
    15
100
AcDbLine
 10
67.1061069436
 20
77.760173281
 30
0.0
 11
74.3061058886
 21
83.3975358804
 31
0.0
  0
LINE
  5
16A
330
1F
100
AcDbEntity
  8
0
  6
Continuous
 62
     7
370
    15
100
AcDbLine
 10
74.3061058886
 20
83.3975358804
 30
0.0
 11
74.3061058886
 21
87.2225335737
 31
0.0
  0
LINE
  5
16B
330
1F
100
AcDbEntity
  8
0
  6
Continuous
 62
     7
370
    15
100
AcDbLine
 10
74.3061058886
 20
87.2225335737
 30
0.0
 11
67.1061069436
 21
82.1785799166
 31
0.0
  0
LINE
  5
16C
330
1F
100
AcDbEntity
  8
0
  6
Continuous
 62
     7
370
    15
100
AcDbLine
 10
67.1061069436
 20
86.5969865521
 30
0.0
 11
74.3061058886
 21
91.0475349923
 31
0.0
  0
LINE
  5
16D
330
1F
100
AcDbEntity
  8
0
  6
Continuous
 62
     7
370
    15
100
AcDbLine
 10
74.3061058886
 20
91.0475349923
 30
0.0
 11
74.3061058886
 21
94.8725345482
 31
0.0
  0
LINE
  5
16E
330
1F
100
AcDbEntity
  8
0
  6
Continuous
 62
     7
370
    15
100
AcDbLine
 10
74.3061058886
 20
94.8725345482
 30
0.0
 11
67.1061069436
 21
91.0153931876
 31
0.0
  0
LINE
  5
16F
330
1F
100
AcDbEntity
  8
0
  6
Continuous
 62
     7
370
    15
100
AcDbLine
 10
67.1061069436
 20
95.4337979605
 30
0.0
 11
74.3061058886
 21
98.6975341042
 31
0.0
  0
LINE
  5
170
330
1F
100
AcDbEntity
  8
0
  6
Continuous
 62
     7
370
    15
100
AcDbLine
 10
74.3061058886
 20
98.6975341042
 30
0.0
 11
74.3061058886
 21
102.5225336601
 31
0.0
  0
LINE
  5
171
330
1F
100
AcDbEntity
  8
0
  6
Continuous
 62
     7
370
    15
100
AcDbLine
 10
74.3061058886
 20
102.5225336601
 30
0.0
 11
67.1061069436
 21
99.852204596
 31
0.0
  0
LINE
  5
172
330
1F
100
AcDbEntity
  8
0
  6
Continuous
 62
     7
370
    15
100
AcDbLine
 10
67.1061069436
 20
104.2706112315
 30
0.0
 11
74.3061058886
 21
106.3475341474
 31
0.0
  0
LINE
  5
173
330
1F
100
AcDbEntity
  8
0
  6
Continuous
 62
     7
370
    15
100
AcDbLine
 10
74.3061058886
 20
106.3475341474
 30
0.0
 11
74.3061058886
 21
110.1725337033
 31
0.0
  0
LINE
  5
174
330
1F
100
AcDbEntity
  8
0
  6
Continuous
 62
     7
370
    15
100
AcDbLine
 10
74.3061058886
 20
110.1725337033
 30
0.0
 11
67.1061069436
 21
108.689017867
 31
0.0
  0
LINE
  5
175
330
1F
100
AcDbEntity
  8
0
  6
Continuous
 62
     7
370
    15
100
AcDbLine
 10
67.1061069436
 20
113.1074245026
 30
0.0
 11
74.3061058886
 21
113.9975341906
 31
0.0
  0
LINE
  5
176
330
1F
100
AcDbEntity
  8
0
  6
Continuous
 62
     7
370
    15
100
AcDbLine
 10
74.3061058886
 20
113.9975341906
 30
0.0
 11
74.3061058886
 21
117.822534445
 31
0.0
  0
LINE
  5
177
330
1F
100
AcDbEntity
  8
0
  6
Continuous
 62
     7
370
    15
100
AcDbLine
 10
74.3061058886
 20
117.822534445
 30
0.0
 11
67.1061069436
 21
117.5258311381
 31
0.0
  0
LINE
  5
178
330
1F
100
AcDbEntity
  8
0
  6
Continuous
 62
     7
370
    15
100
AcDbLine
 10
67.1061069436
 20
121.9442377736
 30
0.0
 11
74.3061058886
 21
121.6475344667
 31
0.0
  0
LINE
  5
179
330
1F
100
AcDbEntity
  8
0
  6
Continuous
 62
     7
370
    15
100
AcDbLine
 10
74.3061058886
 20
121.6475344667
 30
0.0
 11
74.3061058886
 21
125.4725347211
 31
0.0
  0
LINE
  5
17A
330
1F
100
AcDbEntity
  8
0
  6
Continuous
 62
     7
370
    15
100
AcDbLine
 10
74.3061058886
 20
125.4725347211
 30
0.0
 11
67.1061069436
 21
126.3626444091
 31
0.0
  0
LINE
  5
17B
330
1F
100
AcDbEntity
  8
0
  6
Continuous
 62
     7
370
    15
100
AcDbLine
 10
67.1061069436
 20
130.7810510447
 30
0.0
 11
74.3061058886
 21
129.2975352084
 31
0.0
  0
LINE
  5
17C
330
1F
100
AcDbEntity
  8
0
  6
Continuous
 62
     7
370
    15
100
AcDbLine
 10
74.3061058886
 20
129.2975352084
 30
0.0
 11
74.3061058886
 21
133.1225347643
 31
0.0
  0
LINE
  5
17D
330
1F
100
AcDbEntity
  8
0
  6
Continuous
 62
     7
370
    15
100
AcDbLine
 10
74.3061058886
 20
133.1225347643
 30
0.0
 11
67.1061069436
 21
135.1994576802
 31
0.0
  0
LINE
  5
17E
330
1F
100
AcDbEntity
  8
0
  6
Continuous
 62
     7
370
    15
100
AcDbLine
 10
67.1061069436
 20
139.6178643157
 30
0.0
 11
74.3061058886
 21
136.9475352516
 31
0.0
  0
LINE
  5
17F
330
1F
100
AcDbEntity
  8
0
  6
Continuous
 62
     7
370
    15
100
AcDbLine
 10
74.3061058886
 20
136.9475352516
 30
0.0
 11
74.3061058886
 21
140.7725348075
 31
0.0
  0
LINE
  5
180
330
1F
100
AcDbEntity
  8
0
  6
Continuous
 62
     7
370
    15
100
AcDbLine
 10
74.3061058886
 20
140.7725348075
 30
0.0
 11
67.1061069436
 21
144.0362709512
 31
0.0
  0
LINE
  5
181
330
1F
100
AcDbEntity
  8
0
  6
Continuous
 62
     7
370
    15
100
AcDbLine
 10
67.1061069436
 20
148.4546757241
 30
0.0
 11
74.3061058886
 21
144.5975343635
 31
0.0
  0
LINE
  5
182
330
1F
100
AcDbEntity
  8
0
  6
Continuous
 62
     7
370
    15
100
AcDbLine
 10
74.3061058886
 20
144.5975343635
 30
0.0
 11
74.3061058886
 21
148.4225339194
 31
0.0
  0
LINE
  5
183
330
1F
100
AcDbEntity
  8
0
  6
Continuous
 62
     7
370
    15
100
AcDbLine
 10
74.3061058886
 20
148.4225339194
 30
0.0
 11
67.1061069436
 21
152.8730823596
 31
0.0
  0
LINE
  5
184
330
1F
100
AcDbEntity
  8
0
  6
Continuous
 62
     7
370
    15
100
AcDbLine
 10
67.1061069436
 20
157.2914889952
 30
0.0
 11
74.3061058886
 21
152.247535338
 31
0.0
  0
LINE
  5
185
330
1F
100
AcDbEntity
  8
0
  6
Continuous
 62
     7
370
    15
100
AcDbLine
 10
74.3061058886
 20
152.247535338
 30
0.0
 11
74.3061058886
 21
156.0725330313
 31
0.0
  0
LINE
  5
186
330
1F
100
AcDbEntity
  8
0
  6
Continuous
 62
     7
370
    15
100
AcDbLine
 10
74.3061058886
 20
156.0725330313
 30
0.0
 11
67.1061069436
 21
161.7098956307
 31
0.0
  0
LINE
  5
187
330
1F
100
AcDbEntity
  8
0
  6
Continuous
 62
     7
370
    15
100
AcDbLine
 10
67.1061069436
 20
166.1283022662
 30
0.0
 11
74.3061058886
 21
159.8975344499
 31
0.0
  0
LINE
  5
188
330
1F
100
AcDbEntity
  8
0
  6
Continuous
 62
     7
370
    15
100
AcDbLine
 10
74.3061058886
 20
159.8975344499
 30
0.0
 11
74.3061058886
 21
163.7225321432
 31
0.0
  0
LINE
  5
189
330
1F
100
AcDbEntity
  8
0
  6
Continuous
 62
     7
370
    15
100
AcDbLine
 10
74.3061058886
 20
163.7225321432
 30
0.0
 11
67.1061069436
 21
170.5467089017
 31
0.0
  0
LINE
  5
18A
330
1F
100
AcDbEntity
  8
0
  6
Continuous
 62
     7
370
    15
100
AcDbLine
 10
67.1061069436
 20
174.9651155372
 30
0.0
 11
74.3061058886
 21
167.5475335618
 31
0.0
  0
LINE
  5
18B
330
1F
100
AcDbEntity
  8
0
  6
Continuous
 62
     7
370
    15
100
AcDbLine
 10
74.3061058886
 20
167.5475335618
 30
0.0
 11
74.3061058886
 21
171.3725312551
 31
0.0
  0
LINE
  5
18C
330
1F
100
AcDbEntity
  8
0
  6
Continuous
 62
     7
370
    15
100
AcDbLine
 10
74.3061058886
 20
171.3725312551
 30
0.0
 11
67.9968387551
 21
178.3924608429
 31
0.0
  0
LINE
  5
18D
330
1F
100
AcDbEntity
  8
0
  6
Continuous
 62
     7
370
    15
100
AcDbLine
 10
73.742309279
 20
183.8841981192
 30
0.0
 11
80.6286089785
 21
177.695034345
 31
0.0
  0
LINE
  5
18E
330
1F
100
AcDbEntity
  8
0
  6
Continuous
 62
     7
370
    15
100
AcDbLine
 10
80.6286089785
 20
177.695034345
 30
0.0
 11
84.4536066718
 21
177.695034345
 31
0.0
  0
LINE
  5
18F
330
1F
100
AcDbEntity
  8
0
  6
Continuous
 62
     7
370
    15
100
AcDbLine
 10
84.4536066718
 20
177.695034345
 30
0.0
 11
77.0360246963
 21
184.89503329
 31
0.0
  0
LINE
  5
190
330
1F
100
AcDbEntity
  8
0
  6
Continuous
 62
     7
370
    15
100
AcDbLine
 10
81.4544313319
 20
184.89503329
 30
0.0
 11
88.2786080904
 21
177.695034345
 31
0.0
  0
LINE
  5
191
330
1F
100
AcDbEntity
  8
0
  6
Continuous
 62
     7
370
    15
100
AcDbLine
 10
88.2786080904
 20
177.695034345
 30
0.0
 11
92.1036057837
 21
177.695034345
 31
0.0
  0
LINE
  5
192
330
1F
100
AcDbEntity
  8
0
  6
Continuous
 62
     7
370
    15
100
AcDbLine
 10
92.1036057837
 20
177.695034345
 30
0.0
 11
85.8728379674
 21
184.89503329
 31
0.0
  0
LINE
  5
193
330
1F
100
AcDbEntity
  8
0
  6
Continuous
 62
     7
370
    15
100
AcDbLine
 10
90.2912446029
 20
184.89503329
 30
0.0
 11
95.9286072023
 21
177.695034345
 31
0.0
  0
LINE
  5
194
330
1F
100
AcDbEntity
  8
0
  6
Continuous
 62
     7
370
    15
100
AcDbLine
 10
95.9286072023
 20
177.695034345
 30
0.0
 11
99.7536048956
 21
177.695034345
 31
0.0
  0
LINE
  5
195
330
1F
100
AcDbEntity
  8
0
  6
Continuous
 62
     7
370
    15
100
AcDbLine
 10
99.7536048956
 20
177.695034345
 30
0.0
 11
94.7096512384
 21
184.89503329
 31
0.0
  0
LINE
  5
196
330
1F
100
AcDbEntity
  8
0
  6
Continuous
 62
     7
370
    15
100
AcDbLine
 10
99.128057874
 20
184.89503329
 30
0.0
 11
103.5786063142
 21
177.695034345
 31
0.0
  0
LINE
  5
197
330
1F
100
AcDbEntity
  8
0
  6
Continuous
 62
     7
370
    15
100
AcDbLine
 10
103.5786063142
 20
177.695034345
 30
0.0
 11
107.4036058701
 21
177.695034345
 31
0.0
  0
LINE
  5
198
330
1F
100
AcDbEntity
  8
0
  6
Continuous
 62
     7
370
    15
100
AcDbLine
 10
107.4036058701
 20
177.695034345
 30
0.0
 11
103.5464645095
 21
184.89503329
 31
0.0
  0
LINE
  5
199
330
1F
100
AcDbEntity
  8
0
  6
Continuous
 62
     7
370
    15
100
AcDbLine
 10
107.9648692824
 20
184.89503329
 30
0.0
 11
111.2286054261
 21
177.695034345
 31
0.0
  0
LINE
  5
19A
330
1F
100
AcDbEntity
  8
0
  6
Continuous
 62
     7
370
    15
100
AcDbLine
 10
111.2286054261
 20
177.695034345
 30
0.0
 11
115.053604982
 21
177.695034345
 31
0.0
  0
LINE
  5
19B
330
1F
100
AcDbEntity
  8
0
  6
Continuous
 62
     7
370
    15
100
AcDbLine
 10
115.053604982
 20
177.695034345
 30
0.0
 11
112.3832759179
 21
184.89503329
 31
0.0
  0
LINE
  5
19C
330
1F
100
AcDbEntity
  8
0
  6
Continuous
 62
     7
370
    15
100
AcDbLine
 10
116.8016825534
 20
184.89503329
 30
0.0
 11
118.8786054693
 21
177.695034345
 31
0.0
  0
LINE
  5
19D
330
1F
100
AcDbEntity
  8
0
  6
Continuous
 62
     7
370
    15
100
AcDbLine
 10
118.8786054693
 20
177.695034345
 30
0.0
 11
122.7036050252
 21
177.695034345
 31
0.0
  0
LINE
  5
19E
330
1F
100
AcDbEntity
  8
0
  6
Continuous
 62
     7
370
    15
100
AcDbLine
 10
122.7036050252
 20
177.695034345
 30
0.0
 11
121.2200891889
 21
184.89503329
 31
0.0
  0
LINE
  5
19F
330
1F
100
AcDbEntity
  8
0
  6
Continuous
 62
     7
370
    15
100
AcDbLine
 10
125.6384958244
 20
184.89503329
 30
0.0
 11
126.5286055125
 21
177.695034345
 31
0.0
  0
LINE
  5
1A0
330
1F
100
AcDbEntity
  8
0
  6
Continuous
 62
     7
370
    15
100
AcDbLine
 10
126.5286055125
 20
177.695034345
 30
0.0
 11
130.3536057669
 21
177.695034345
 31
0.0
  0
LINE
  5
1A1
330
1F
100
AcDbEntity
  8
0
  6
Continuous
 62
     7
370
    15
100
AcDbLine
 10
130.3536057669
 20
177.695034345
 30
0.0
 11
130.05690246
 21
184.89503329
 31
0.0
  0
LINE
  5
1A2
330
1F
100
AcDbEntity
  8
0
  6
Continuous
 62
     7
370
    15
100
AcDbLine
 10
134.4753090955
 20
184.89503329
 30
0.0
 11
134.1786057885
 21
177.695034345
 31
0.0
  0
LINE
  5
1A3
330
1F
100
AcDbEntity
  8
0
  6
Continuous
 62
     7
370
    15
100
AcDbLine
 10
134.1786057885
 20
177.695034345
 30
0.0
 11
138.003606043
 21
177.695034345
 31
0.0
  0
LINE
  5
1A4
330
1F
100
AcDbEntity
  8
0
  6
Continuous
 62
     7
370
    15
100
AcDbLine
 10
138.003606043
 20
177.695034345
 30
0.0
 11
138.893715731
 21
184.89503329
 31
0.0
  0
LINE
  5
1A5
330
1F
100
AcDbEntity
  8
0
  6
Continuous
 62
     7
370
    15
100
AcDbLine
 10
143.3121223665
 20
184.89503329
 30
0.0
 11
141.8286065302
 21
177.695034345
 31
0.0
  0
LINE
  5
1A6
330
1F
100
AcDbEntity
  8
0
  6
Continuous
 62
     7
370
    15
100
AcDbLine
 10
141.8286065302
 20
177.695034345
 30
0.0
 11
145.6536060862
 21
177.695034345
 31
0.0
  0
LINE
  5
1A7
330
1F
100
AcDbEntity
  8
0
  6
Continuous
 62
     7
370
    15
100
AcDbLine
 10
145.6536060862
 20
177.695034345
 30
0.0
 11
147.7305290021
 21
184.89503329
 31
0.0
  0
LINE
  5
1A8
330
1F
100
AcDbEntity
  8
0
  6
Continuous
 62
     7
370
    15
100
AcDbLine
 10
152.1489356376
 20
184.89503329
 30
0.0
 11
149.4786065735
 21
177.695034345
 31
0.0
  0
LINE
  5
1A9
330
1F
100
AcDbEntity
  8
0
  6
Continuous
 62
     7
370
    15
100
AcDbLine
 10
149.4786065735
 20
177.695034345
 30
0.0
 11
153.3036061294
 21
177.695034345
 31
0.0
  0
LINE
  5
1AA
330
1F
100
AcDbEntity
  8
0
  6
Continuous
 62
     7
370
    15
100
AcDbLine
 10
153.3036061294
 20
177.695034345
 30
0.0
 11
156.5673422731
 21
184.89503329
 31
0.0
  0
LINE
  5
1AB
330
1F
100
AcDbEntity
  8
0
  6
Continuous
 62
     7
370
    15
100
AcDbLine
 10
160.985747046
 20
184.89503329
 30
0.0
 11
157.1286056853
 21
177.695034345
 31
0.0
  0
LINE
  5
1AC
330
1F
100
AcDbEntity
  8
0
  6
Continuous
 62
     7
370
    15
100
AcDbLine
 10
157.1286056853
 20
177.695034345
 30
0.0
 11
160.9536052413
 21
177.695034345
 31
0.0
  0
LINE
  5
1AD
330
1F
100
AcDbEntity
  8
0
  6
Continuous
 62
     7
370
    15
100
AcDbLine
 10
160.9536052413
 20
177.695034345
 30
0.0
 11
165.4041536815
 21
184.89503329
 31
0.0
  0
LINE
  5
1AE
330
1F
100
AcDbEntity
  8
0
  6
Continuous
 62
     7
370
    15
100
AcDbLine
 10
169.822560317
 20
184.89503329
 30
0.0
 11
164.7786066599
 21
177.695034345
 31
0.0
  0
LINE
  5
1AF
330
1F
100
AcDbEntity
  8
0
  6
Continuous
 62
     7
370
    15
100
AcDbLine
 10
164.7786066599
 20
177.695034345
 30
0.0
 11
168.6036043532
 21
177.695034345
 31
0.0
  0
LINE
  5
1B0
330
1F
100
AcDbEntity
  8
0
  6
Continuous
 62
     7
370
    15
100
AcDbLine
 10
168.6036043532
 20
177.695034345
 30
0.0
 11
174.2409669526
 21
184.89503329
 31
0.0
  0
LINE
  5
1B1
330
1F
100
AcDbEntity
  8
0
  6
Continuous
 62
     7
370
    15
100
AcDbLine
 10
178.6593735881
 20
184.89503329
 30
0.0
 11
172.4286057718
 21
177.695034345
 31
0.0
  0
LINE
  5
1B2
330
1F
100
AcDbEntity
  8
0
  6
Continuous
 62
     7
370
    15
100
AcDbLine
 10
172.4286057718
 20
177.695034345
 30
0.0
 11
176.2536034651
 21
177.695034345
 31
0.0
  0
LINE
  5
1B3
330
1F
100
AcDbEntity
  8
0
  6
Continuous
 62
     7
370
    15
100
AcDbLine
 10
176.2536034651
 20
177.695034345
 30
0.0
 11
183.0777802236
 21
184.89503329
 31
0.0
  0
LINE
  5
1B4
330
1F
100
AcDbEntity
  8
0
  6
Continuous
 62
     7
370
    15
100
AcDbLine
 10
187.4961868591
 20
184.89503329
 30
0.0
 11
180.0786048837
 21
177.695034345
 31
0.0
  0
LINE
  5
1B5
330
1F
100
AcDbEntity
  8
0
  6
Continuous
 62
     7
370
    15
100
AcDbLine
 10
180.0786048837
 20
177.695034345
 30
0.0
 11
183.903602577
 21
177.695034345
 31
0.0
  0
LINE
  5
1B6
330
1F
100
AcDbEntity
  8
0
  6
Continuous
 62
     7
370
    15
100
AcDbLine
 10
183.903602577
 20
177.695034345
 30
0.0
 11
191.4216742582
 21
184.4520143171
 31
0.0
  0
LINE
  5
1B7
330
1F
100
AcDbEntity
  8
0
  6
Continuous
 62
     7
370
    15
100
AcDbLine
 10
196.983085639
 20
178.8906029363
 30
0.0
 11
190.2261056669
 21
171.3725312551
 31
0.0
  0
LINE
  5
1B8
330
1F
100
AcDbEntity
  8
0
  6
Continuous
 62
     7
370
    15
100
AcDbLine
 10
190.2261056669
 20
171.3725312551
 30
0.0
 11
190.2261056669
 21
167.5475335618
 31
0.0
  0
LINE
  5
1B9
330
1F
100
AcDbEntity
  8
0
  6
Continuous
 62
     7
370
    15
100
AcDbLine
 10
190.2261056669
 20
167.5475335618
 30
0.0
 11
197.4261046119
 21
174.9651155372
 31
0.0
  0
LINE
  5
1BA
330
1F
100
AcDbEntity
  8
0
  6
Continuous
 62
     7
370
    15
100
AcDbLine
 10
197.4261046119
 20
170.5467089017
 30
0.0
 11
190.2261056669
 21
163.7225321432
 31
0.0
  0
LINE
  5
1BB
330
1F
100
AcDbEntity
  8
0
  6
Continuous
 62
     7
370
    15
100
AcDbLine
 10
190.2261056669
 20
163.7225321432
 30
0.0
 11
190.2261056669
 21
159.8975344499
 31
0.0
  0
LINE
  5
1BC
330
1F
100
AcDbEntity
  8
0
  6
Continuous
 62
     7
370
    15
100
AcDbLine
 10
190.2261056669
 20
159.8975344499
 30
0.0
 11
197.4261046119
 21
166.1283022662
 31
0.0
  0
LINE
  5
1BD
330
1F
100
AcDbEntity
  8
0
  6
Continuous
 62
     7
370
    15
100
AcDbLine
 10
197.4261046119
 20
161.7098956307
 30
0.0
 11
190.2261056669
 21
156.0725330313
 31
0.0
  0
LINE
  5
1BE
330
1F
100
AcDbEntity
  8
0
  6
Continuous
 62
     7
370
    15
100
AcDbLine
 10
190.2261056669
 20
156.0725330313
 30
0.0
 11
190.2261056669
 21
152.247535338
 31
0.0
  0
LINE
  5
1BF
330
1F
100
AcDbEntity
  8
0
  6
Continuous
 62
     7
370
    15
100
AcDbLine
 10
190.2261056669
 20
152.247535338
 30
0.0
 11
197.4261046119
 21
157.2914889952
 31
0.0
  0
LINE
  5
1C0
330
1F
100
AcDbEntity
  8
0
  6
Continuous
 62
     7
370
    15
100
AcDbLine
 10
197.4261046119
 20
152.8730823596
 30
0.0
 11
190.2261056669
 21
148.4225339194
 31
0.0
  0
LINE
  5
1C1
330
1F
100
AcDbEntity
  8
0
  6
Continuous
 62
     7
370
    15
100
AcDbLine
 10
190.2261056669
 20
148.4225339194
 30
0.0
 11
190.2261056669
 21
144.5975343635
 31
0.0
  0
LINE
  5
1C2
330
1F
100
AcDbEntity
  8
0
  6
Continuous
 62
     7
370
    15
100
AcDbLine
 10
190.2261056669
 20
144.5975343635
 30
0.0
 11
197.4261046119
 21
148.4546757241
 31
0.0
  0
LINE
  5
1C3
330
1F
100
AcDbEntity
  8
0
  6
Continuous
 62
     7
370
    15
100
AcDbLine
 10
197.4261046119
 20
144.0362709512
 30
0.0
 11
190.2261056669
 21
140.7725348075
 31
0.0
  0
LINE
  5
1C4
330
1F
100
AcDbEntity
  8
0
  6
Continuous
 62
     7
370
    15
100
AcDbLine
 10
190.2261056669
 20
140.7725348075
 30
0.0
 11
190.2261056669
 21
136.9475352516
 31
0.0
  0
LINE
  5
1C5
330
1F
100
AcDbEntity
  8
0
  6
Continuous
 62
     7
370
    15
100
AcDbLine
 10
190.2261056669
 20
136.9475352516
 30
0.0
 11
197.4261046119
 21
139.6178643157
 31
0.0
  0
LINE
  5
1C6
330
1F
100
AcDbEntity
  8
0
  6
Continuous
 62
     7
370
    15
100
AcDbLine
 10
197.4261046119
 20
135.1994576802
 30
0.0
 11
190.2261056669
 21
133.1225347643
 31
0.0
  0
LINE
  5
1C7
330
1F
100
AcDbEntity
  8
0
  6
Continuous
 62
     7
370
    15
100
AcDbLine
 10
190.2261056669
 20
133.1225347643
 30
0.0
 11
190.2261056669
 21
129.2975352084
 31
0.0
  0
LINE
  5
1C8
330
1F
100
AcDbEntity
  8
0
  6
Continuous
 62
     7
370
    15
100
AcDbLine
 10
190.2261056669
 20
129.2975352084
 30
0.0
 11
197.4261046119
 21
130.7810510447
 31
0.0
  0
LINE
  5
1C9
330
1F
100
AcDbEntity
  8
0
  6
Continuous
 62
     7
370
    15
100
AcDbLine
 10
197.4261046119
 20
126.3626444091
 30
0.0
 11
190.2261056669
 21
125.4725347211
 31
0.0
  0
LINE
  5
1CA
330
1F
100
AcDbEntity
  8
0
  6
Continuous
 62
     7
370
    15
100
AcDbLine
 10
190.2261056669
 20
125.4725347211
 30
0.0
 11
190.2261056669
 21
121.6475344667
 31
0.0
  0
LINE
  5
1CB
330
1F
100
AcDbEntity
  8
0
  6
Continuous
 62
     7
370
    15
100
AcDbLine
 10
190.2261056669
 20
121.6475344667
 30
0.0
 11
197.4261046119
 21
121.9442377736
 31
0.0
  0
LINE
  5
1CC
330
1F
100
AcDbEntity
  8
0
  6
Continuous
 62
     7
370
    15
100
AcDbLine
 10
197.4261046119
 20
117.5258311381
 30
0.0
 11
190.2261056669
 21
117.822534445
 31
0.0
  0
LINE
  5
1CD
330
1F
100
AcDbEntity
  8
0
  6
Continuous
 62
     7
370
    15
100
AcDbLine
 10
190.2261056669
 20
117.822534445
 30
0.0
 11
190.2261056669
 21
113.9975341906
 31
0.0
  0
LINE
  5
1CE
330
1F
100
AcDbEntity
  8
0
  6
Continuous
 62
     7
370
    15
100
AcDbLine
 10
190.2261056669
 20
113.9975341906
 30
0.0
 11
197.4261046119
 21
113.1074245026
 31
0.0
  0
LINE
  5
1CF
330
1F
100
AcDbEntity
  8
0
  6
Continuous
 62
     7
370
    15
100
AcDbLine
 10
197.4261046119
 20
108.689017867
 30
0.0
 11
190.2261056669
 21
110.1725337033
 31
0.0
  0
LINE
  5
1D0
330
1F
100
AcDbEntity
  8
0
  6
Continuous
 62
     7
370
    15
100
AcDbLine
 10
190.2261056669
 20
110.1725337033
 30
0.0
 11
190.2261056669
 21
106.3475341474
 31
0.0
  0
LINE
  5
1D1
330
1F
100
AcDbEntity
  8
0
  6
Continuous
 62
     7
370
    15
100
AcDbLine
 10
190.2261056669
 20
106.3475341474
 30
0.0
 11
197.4261046119
 21
104.2706112315
 31
0.0
  0
LINE
  5
1D2
330
1F
100
AcDbEntity
  8
0
  6
Continuous
 62
     7
370
    15
100
AcDbLine
 10
197.4261046119
 20
99.852204596
 30
0.0
 11
190.2261056669
 21
102.5225336601
 31
0.0
  0
LINE
  5
1D3
330
1F
100
AcDbEntity
  8
0
  6
Continuous
 62
     7
370
    15
100
AcDbLine
 10
190.2261056669
 20
102.5225336601
 30
0.0
 11
190.2261056669
 21
98.6975341042
 31
0.0
  0
LINE
  5
1D4
330
1F
100
AcDbEntity
  8
0
  6
Continuous
 62
     7
370
    15
100
AcDbLine
 10
190.2261056669
 20
98.6975341042
 30
0.0
 11
197.4261046119
 21
95.4337979605
 31
0.0
  0
LINE
  5
1D5
330
1F
100
AcDbEntity
  8
0
  6
Continuous
 62
     7
370
    15
100
AcDbLine
 10
197.4261046119
 20
91.0153931876
 30
0.0
 11
190.2261056669
 21
94.8725345482
 31
0.0
  0
LINE
  5
1D6
330
1F
100
AcDbEntity
  8
0
  6
Continuous
 62
     7
370
    15
100
AcDbLine
 10
190.2261056669
 20
94.8725345482
 30
0.0
 11
190.2261056669
 21
91.0475349923
 31
0.0
  0
LINE
  5
1D7
330
1F
100
AcDbEntity
  8
0
  6
Continuous
 62
     7
370
    15
100
AcDbLine
 10
190.2261056669
 20
91.0475349923
 30
0.0
 11
197.4261046119
 21
86.5969865521
 31
0.0
  0
LINE
  5
1D8
330
1F
100
AcDbEntity
  8
0
  6
Continuous
 62
     7
370
    15
100
AcDbLine
 10
197.4261046119
 20
82.1785799166
 30
0.0
 11
190.2261056669
 21
87.2225335737
 31
0.0
  0
LINE
  5
1D9
330
1F
100
AcDbEntity
  8
0
  6
Continuous
 62
     7
370
    15
100
AcDbLine
 10
190.2261056669
 20
87.2225335737
 30
0.0
 11
190.2261056669
 21
83.3975358804
 31
0.0
  0
LINE
  5
1DA
330
1F
100
AcDbEntity
  8
0
  6
Continuous
 62
     7
370
    15
100
AcDbLine
 10
190.2261056669
 20
83.3975358804
 30
0.0
 11
197.4261046119
 21
77.760173281
 31
0.0
  0
LINE
  5
1DB
330
1F
100
AcDbEntity
  8
0
  6
Continuous
 62
     7
370
    15
100
AcDbLine
 10
197.4261046119
 20
73.3417666455
 30
0.0
 11
190.2261056669
 21
79.5725344618
 31
0.0
  0
LINE
  5
1DC
330
1F
100
AcDbEntity
  8
0
  6
Continuous
 62
     7
370
    15
100
AcDbLine
 10
190.2261056669
 20
79.5725344618
 30
0.0
 11
190.2261056669
 21
75.7475367685
 31
0.0
  0
LINE
  5
1DD
330
1F
100
AcDbEntity
  8
0
  6
Continuous
 62
     7
370
    15
100
AcDbLine
 10
190.2261056669
 20
75.7475367685
 30
0.0
 11
197.4261046119
 21
68.92336001
 31
0.0
  0
LINE
  5
1DE
330
1F
100
AcDbEntity
  8
0
  6
Continuous
 62
     7
370
    15
100
AcDbLine
 10
197.4261046119
 20
64.5049533745
 30
0.0
 11
190.2261056669
 21
71.9225353499
 31
0.0
  0
LINE
  5
1DF
330
1F
100
AcDbEntity
  8
0
  6
Continuous
 62
     7
370
    15
100
AcDbLine
 10
190.2261056669
 20
71.9225353499
 30
0.0
 11
190.2261056669
 21
68.0975376566
 31
0.0
  0
LINE
  5
1E0
330
1F
100
AcDbEntity
  8
0
  6
Continuous
 62
     7
370
    15
100
AcDbLine
 10
190.2261056669
 20
68.0975376566
 30
0.0
 11
196.983085639
 21
60.5794659754
 31
0.0
  0
LINE
  5
1E1
330
1F
100
AcDbEntity
  8
0
  6
Continuous
 62
     7
370
    15
100
AcDbLine
 10
191.4216742582
 20
55.0180545946
 30
0.0
 11
183.903602577
 21
61.7750345667
 31
0.0
  0
ARC
  5
1E2
330
1F
100
AcDbEntity
  8
0
  6
Continuous
 62
     7
370
    15
100
AcDbCircle
 10
187.5261049318
 20
131.0390346156
 30
0.0
 40
5.400000256486829
100
AcDbArc
 50
89.9999731801
 51
270.0000268199
  0
LINE
  5
1E3
330
1F
100
AcDbEntity
  8
0
  6
Continuous
 62
     7
370
    15
100
AcDbLine
 10
187.5261083908
 20
136.4390349885
 30
0.0
 11
187.5261083908
 21
148.6250351121
 31
0.0
  0
ARC
  5
1E4
330
1F
100
AcDbEntity
  8
0
  6
Continuous
 62
     7
370
    15
100
AcDbCircle
 10
187.5261049318
 20
154.0250346701
 30
0.0
 40
5.400000256486829
100
AcDbArc
 50
89.9999731801
 51
270.0000268199
  0
LINE
  5
1E5
330
1F
100
AcDbEntity
  8
0
  6
Continuous
 62
     7
370
    15
100
AcDbLine
 10
187.5261083908
 20
159.4250335296
 30
0.0
 11
187.5261083908
 21
173.0858481427
 31
0.0
  0
LINE
  5
1E6
330
1F
100
AcDbEntity
  8
0
  6
Continuous
 62
     7
370
    15
100
AcDbLine
 10
187.5261083908
 20
173.0858481427
 30
0.0
 11
195.749716527
 21
181.3094600042
 31
0.0
  0
LINE
  5
1E7
330
1F
100
AcDbEntity
  8
0
  6
Continuous
 62
     7
370
    15
100
AcDbLine
 10
193.840531326
 20
183.2186452051
 30
0.0
 11
185.6169194646
 21
174.9950370689
 31
0.0
  0
LINE
  5
1E8
330
1F
100
AcDbEntity
  8
0
  6
Continuous
 62
     7
370
    15
100
AcDbLine
 10
185.6169194646
 20
174.9950370689
 30
0.0
 11
172.3341063328
 21
174.9950370689
 31
0.0
  0
ARC
  5
1E9
330
1F
100
AcDbEntity
  8
0
  6
Continuous
 62
     7
370
    15
100
AcDbCircle
 10
166.934105727
 20
174.9950326454
 30
0.0
 40
5.399999208749469
100
AcDbArc
 50
179.9999629463
 51
0.0000370537
  0
LINE
  5
1EA
330
1F
100
AcDbEntity
  8
0
  6
Continuous
 62
     7
370
    15
100
AcDbLine
 10
161.5341060526
 20
174.9950370689
 30
0.0
 11
149.348105929
 21
174.9950370689
 31
0.0
  0
ARC
  5
1EB
330
1F
100
AcDbEntity
  8
0
  6
Continuous
 62
     7
370
    15
100
AcDbCircle
 10
143.9481059345
 20
174.9950333253
 30
0.0
 40
5.399999994552495
100
AcDbArc
 50
179.9999701611
 51
0.0000298389
  0
LINE
  5
1EC
330
1F
100
AcDbEntity
  8
0
  6
Continuous
 62
     7
370
    15
100
AcDbLine
 10
138.5481061145
 20
174.9950370689
 30
0.0
 11
126.3621059909
 21
174.9950370689
 31
0.0
  0
ARC
  5
1ED
330
1F
100
AcDbEntity
  8
0
  6
Continuous
 62
     7
370
    15
100
AcDbCircle
 10
120.962105618
 20
174.9950336099
 30
0.0
 40
5.400000256486829
100
AcDbArc
 50
179.9999731801
 51
0.0000268199
  0
LINE
  5
1EE
330
1F
100
AcDbEntity
  8
0
  6
Continuous
 62
     7
370
    15
100
AcDbLine
 10
115.5621052451
 20
174.9950370689
 30
0.0
 11
103.3761051215
 21
174.9950370689
 31
0.0
  0
ARC
  5
1EF
330
1F
100
AcDbEntity
  8
0
  6
Continuous
 62
     7
370
    15
100
AcDbCircle
 10
97.9761055635
 20
174.9950336099
 30
0.0
 40
5.400000256486829
100
AcDbArc
 50
179.9999731801
 51
0.0000268199
  0
LINE
  5
1F0
330
1F
100
AcDbEntity
  8
0
  6
Continuous
 62
     7
370
    15
100
AcDbLine
 10
92.576106704
 20
174.9950370689
 30
0.0
 11
78.9152920909
 21
174.9950370689
 31
0.0
  0
LINE
  5
1F1
330
1F
100
AcDbEntity
  8
0
  6
Continuous
 62
     7
370
    15
100
AcDbLine
 10
78.9152920909
 20
174.9950370689
 30
0.0
 11
71.8422659404
 21
182.0680632194
 31
0.0
  0
LINE
  5
1F2
330
1F
100
AcDbEntity
  8
0
  6
Continuous
 62
     7
370
    15
100
AcDbLine
 10
69.8899679549
 20
180.2019833525
 30
0.0
 11
77.0061031647
 21
173.0858481427
 31
0.0
  0
LINE
  5
1F3
330
1F
100
AcDbEntity
  8
0
  6
Continuous
 62
     7
370
    15
100
AcDbLine
 10
77.0061031647
 20
173.0858481427
 30
0.0
 11
77.0061031647
 21
159.8030350109
 31
0.0
  0
ARC
  5
1F4
330
1F
100
AcDbEntity
  8
0
  6
Continuous
 62
     7
370
    15
100
AcDbCircle
 10
77.0061075882
 20
154.4030344052
 30
0.0
 40
5.399999208749469
100
AcDbArc
 50
269.9999629463
 51
90.0000370537
  0
LINE
  5
1F5
330
1F
100
AcDbEntity
  8
0
  6
Continuous
 62
     7
370
    15
100
AcDbLine
 10
77.0061031647
 20
149.0030347307
 30
0.0
 11
77.0061031647
 21
136.8170346071
 31
0.0
  0
ARC
  5
1F6
330
1F
100
AcDbEntity
  8
0
  6
Continuous
 62
     7
370
    15
100
AcDbCircle
 10
77.0061069082
 20
131.4170346126
 30
0.0
 40
5.399999994552495
100
AcDbArc
 50
269.9999701611
 51
90.0000298389
  0
LINE
  5
1F7
330
1F
100
AcDbEntity
  8
0
  6
Continuous
 62
     7
370
    15
100
AcDbLine
 10
77.0061031647
 20
126.0170347926
 30
0.0
 11
77.0061031647
 21
113.831034669
 31
0.0
  0
ARC
  5
1F8
330
1F
100
AcDbEntity
  8
0
  6
Continuous
 62
     7
370
    15
100
AcDbCircle
 10
77.0061066237
 20
108.4310342961
 30
0.0
 40
5.400000256486829
100
AcDbArc
 50
269.9999731801
 51
90.0000268199
  0
LINE
  5
1F9
330
1F
100
AcDbEntity
  8
0
  6
Continuous
 62
     7
370
    15
100
AcDbLine
 10
77.0061031647
 20
103.0310339232
 30
0.0
 11
77.0061031647
 21
90.8450337996
 31
0.0
  0
ARC
  5
1FA
330
1F
100
AcDbEntity
  8
0
  6
Continuous
 62
     7
370
    15
100
AcDbCircle
 10
77.0061066237
 20
85.4450342416
 30
0.0
 40
5.400000256486829
100
AcDbArc
 50
269.9999731801
 51
90.0000268199
  0
LINE
  5
1FB
330
1F
100
AcDbEntity
  8
0
  6
Continuous
 62
     7
370
    15
100
AcDbLine
 10
77.0061031647
 20
80.0450353821
 30
0.0
 11
77.0061031647
 21
66.384220769
 31
0.0
  0
LINE
  5
1FC
330
1F
100
AcDbEntity
  8
0
  6
Continuous
 62
     7
370
    15
100
AcDbLine
 10
77.0061031647
 20
66.384220769
 30
0.0
 11
68.7824950285
 21
58.1606089075
 31
0.0
  0
LINE
  5
1FD
330
1F
100
AcDbEntity
  8
0
  6
Continuous
 62
     7
370
    15
100
AcDbLine
 10
70.6916802294
 20
56.2514237066
 30
0.0
 11
78.9152920909
 21
64.4750318428
 31
0.0
  0
LINE
  5
1FE
330
1F
100
AcDbEntity
  8
0
  6
Continuous
 62
     7
370
    15
100
AcDbLine
 10
78.9152920909
 20
64.4750318428
 30
0.0
 11
92.1981052227
 21
64.4750318428
 31
0.0
  0
ARC
  5
1FF
330
1F
100
AcDbEntity
  8
0
  6
Continuous
 62
     7
370
    15
100
AcDbCircle
 10
97.5981058284
 20
64.4750362663
 30
0.0
 40
5.399999208749469
100
AcDbArc
 50
359.9999629463
 51
180.0000370537
  0
LINE
  5
200
330
1F
100
AcDbEntity
  8
0
  6
Continuous
 62
     7
370
    15
100
AcDbLine
 10
102.9981055028
 20
64.4750318428
 30
0.0
 11
115.1841056265
 21
64.4750318428
 31
0.0
  0
ARC
  5
201
330
1F
100
AcDbEntity
  8
0
  6
Continuous
 62
     7
370
    15
100
AcDbCircle
 10
120.584105621
 20
64.4750355864
 30
0.0
 40
5.399999994552495
100
AcDbArc
 50
359.9999701611
 51
180.0000298389
  0
LINE
  5
202
330
1F
100
AcDbEntity
  8
0
  6
Continuous
 62
     7
370
    15
100
AcDbLine
 10
125.9841054409
 20
64.4750318428
 30
0.0
 11
138.1701055646
 21
64.4750318428
 31
0.0
  0
ARC
  5
203
330
1F
100
AcDbEntity
  8
0
  6
Continuous
 62
     7
370
    15
100
AcDbCircle
 10
143.5701059375
 20
64.4750353018
 30
0.0
 40
5.400000256486829
100
AcDbArc
 50
359.9999731801
 51
180.0000268199
  0
LINE
  5
204
330
1F
100
AcDbEntity
  8
0
  6
Continuous
 62
     7
370
    15
100
AcDbLine
 10
148.9701063104
 20
64.4750318428
 30
0.0
 11
161.156106434
 21
64.4750318428
 31
0.0
  0
ARC
  5
205
330
1F
100
AcDbEntity
  8
0
  6
Continuous
 62
     7
370
    15
100
AcDbCircle
 10
166.556105992
 20
64.4750353018
 30
0.0
 40
5.400000256486829
100
AcDbArc
 50
359.9999731801
 51
180.0000268199
  0
LINE
  5
206
330
1F
100
AcDbEntity
  8
0
  6
Continuous
 62
     7
370
    15
100
AcDbLine
 10
171.9561048515
 20
64.4750318428
 30
0.0
 11
185.6169194646
 21
64.4750318428
 31
0.0
  0
LINE
  5
207
330
1F
100
AcDbEntity
  8
0
  6
Continuous
 62
     7
370
    15
100
AcDbLine
 10
185.6169194646
 20
64.4750318428
 30
0.0
 11
193.840531326
 21
56.2514237066
 31
0.0
  0
LINE
  5
208
330
1F
100
AcDbEntity
  8
0
  6
Continuous
 62
     7
370
    15
100
AcDbLine
 10
195.749716527
 20
58.1606089075
 30
0.0
 11
187.5261083908
 21
66.384220769
 31
0.0
  0
LINE
  5
209
330
1F
100
AcDbEntity
  8
0
  6
Continuous
 62
     7
370
    15
100
AcDbLine
 10
187.5261083908
 20
66.384220769
 30
0.0
 11
187.5261083908
 21
79.6670339008
 31
0.0
  0
ARC
  5
20A
330
1F
100
AcDbEntity
  8
0
  6
Continuous
 62
     7
370
    15
100
AcDbCircle
 10
187.5261039672
 20
85.0670345065
 30
0.0
 40
5.399999208749469
100
AcDbArc
 50
89.9999629463
 51
270.0000370537
  0
LINE
  5
20B
330
1F
100
AcDbEntity
  8
0
  6
Continuous
 62
     7
370
    15
100
AcDbLine
 10
187.5261083908
 20
90.467034181
 30
0.0
 11
187.5261083908
 21
102.6530343046
 31
0.0
  0
ARC
  5
20C
330
1F
100
AcDbEntity
  8
0
  6
Continuous
 62
     7
370
    15
100
AcDbCircle
 10
187.5261046472
 20
108.0530342991
 30
0.0
 40
5.399999994552495
100
AcDbArc
 50
89.9999701611
 51
270.0000298389
  0
LINE
  5
20D
330
1F
100
AcDbEntity
  8
0
  6
Continuous
 62
     7
370
    15
100
AcDbLine
 10
187.5261083908
 20
113.4530341191
 30
0.0
 11
187.5261083908
 21
125.6390342427
 31
0.0
  0
MTEXT
  5
20E
330
1F
100
AcDbEntity
  8
FORMAT
100
AcDbMText
 10
132.4290181167
 20
201.2522585418
 30
0.0
 40
3.7041666667
 41
0.0
 71
     2
 72
     1
  1
BONDING DIAGRAM
  7
SLDTEXTSTYLE0
 73
     1
 44
1.0
  0
MTEXT
  5
20F
330
1F
100
AcDbEntity
  8
NOTES
100
AcDbMText
 10
74.9657183762
 20
190.3698020327
 30
0.0
 40
2.6458333333
 41
0.0
 71
     2
 72
     1
  1
56
  7
SLDTEXTSTYLE0
 73
     1
 44
1.0
  0
MTEXT
  5
210
330
1F
100
AcDbEntity
  8
NOTES
100
AcDbMText
 10
61.6734784971
 20
63.7584162548
 30
0.0
 40
2.6458333333
 41
0.0
 71
     2
 72
     1
  1
14
  7
SLDTEXTSTYLE0
 73
     1
 44
1.0
  0
MTEXT
  5
211
330
1F
100
AcDbEntity
  8
NOTES
100
AcDbMText
 10
74.7394992185
 20
52.3859025935
 30
0.0
 40
2.6458333333
 41
0.0
 71
     2
 72
     1
  1
15
  7
SLDTEXTSTYLE0
 73
     1
 44
1.0
  0
MTEXT
  5
212
330
1F
100
AcDbEntity
  8
NOTES
100
AcDbMText
 10
203.1631994266
 20
63.7584162548
 30
0.0
 40
2.6458333333
 41
0.0
 71
     2
 72
     1
  1
29
  7
SLDTEXTSTYLE0
 73
     1
 44
1.0
  0
MTEXT
  5
213
330
1F
100
AcDbEntity
  8
NOTES
100
AcDbMText
 10
189.6257183762
 20
190.3698020327
 30
0.0
 40
2.6458333333
 41
0.0
 71
     2
 72
     1
  1
43
  7
SLDTEXTSTYLE0
 73
     1
 44
1.0
  0
MTEXT
  5
214
330
1F
100
AcDbEntity
  8
NOTES
100
AcDbMText
 10
180.8057183762
 20
190.3698020327
 30
0.0
 40
2.6458333333
 41
0.0
 71
     2
 72
     1
  1
44
  7
SLDTEXTSTYLE0
 73
     1
 44
1.0
  0
MTEXT
  5
215
330
1F
100
AcDbEntity
  8
NOTES
100
AcDbMText
 10
171.9857183762
 20
190.3698020327
 30
0.0
 40
2.6458333333
 41
0.0
 71
     2
 72
     1
  1
45
  7
SLDTEXTSTYLE0
 73
     1
 44
1.0
  0
MTEXT
  5
216
330
1F
100
AcDbEntity
  8
NOTES
100
AcDbMText
 10
163.1657183762
 20
190.3698020327
 30
0.0
 40
2.6458333333
 41
0.0
 71
     2
 72
     1
  1
46
  7
SLDTEXTSTYLE0
 73
     1
 44
1.0
  0
MTEXT
  5
217
330
1F
100
AcDbEntity
  8
NOTES
100
AcDbMText
 10
154.3457183762
 20
190.3698020327
 30
0.0
 40
2.6458333333
 41
0.0
 71
     2
 72
     1
  1
47
  7
SLDTEXTSTYLE0
 73
     1
 44
1.0
  0
MTEXT
  5
218
330
1F
100
AcDbEntity
  8
NOTES
100
AcDbMText
 10
145.5257183762
 20
190.3698020327
 30
0.0
 40
2.6458333333
 41
0.0
 71
     2
 72
     1
  1
48
  7
SLDTEXTSTYLE0
 73
     1
 44
1.0
  0
MTEXT
  5
219
330
1F
100
AcDbEntity
  8
NOTES
100
AcDbMText
 10
136.7057183762
 20
190.3698020327
 30
0.0
 40
2.6458333333
 41
0.0
 71
     2
 72
     1
  1
49
  7
SLDTEXTSTYLE0
 73
     1
 44
1.0
  0
MTEXT
  5
21A
330
1F
100
AcDbEntity
  8
NOTES
100
AcDbMText
 10
127.8857183762
 20
190.3698020327
 30
0.0
 40
2.6458333333
 41
0.0
 71
     2
 72
     1
  1
50
  7
SLDTEXTSTYLE0
 73
     1
 44
1.0
  0
MTEXT
  5
21B
330
1F
100
AcDbEntity
  8
NOTES
100
AcDbMText
 10
119.0657183762
 20
190.3698020327
 30
0.0
 40
2.6458333333
 41
0.0
 71
     2
 72
     1
  1
51
  7
SLDTEXTSTYLE0
 73
     1
 44
1.0
  0
MTEXT
  5
21C
330
1F
100
AcDbEntity
  8
NOTES
100
AcDbMText
 10
110.2457183762
 20
190.3698020327
 30
0.0
 40
2.6458333333
 41
0.0
 71
     2
 72
     1
  1
52
  7
SLDTEXTSTYLE0
 73
     1
 44
1.0
  0
MTEXT
  5
21D
330
1F
100
AcDbEntity
  8
NOTES
100
AcDbMText
 10
101.4257183762
 20
190.3698020327
 30
0.0
 40
2.6458333333
 41
0.0
 71
     2
 72
     1
  1
53
  7
SLDTEXTSTYLE0
 73
     1
 44
1.0
  0
MTEXT
  5
21E
330
1F
100
AcDbEntity
  8
NOTES
100
AcDbMText
 10
92.6057183762
 20
190.3698020327
 30
0.0
 40
2.6458333333
 41
0.0
 71
     2
 72
     1
  1
54
  7
SLDTEXTSTYLE0
 73
     1
 44
1.0
  0
MTEXT
  5
21F
330
1F
100
AcDbEntity
  8
NOTES
100
AcDbMText
 10
83.7857183762
 20
190.3698020327
 30
0.0
 40
2.6458333333
 41
0.0
 71
     2
 72
     1
  1
55
  7
SLDTEXTSTYLE0
 73
     1
 44
1.0
  0
MTEXT
  5
220
330
1F
100
AcDbEntity
  8
NOTES
100
AcDbMText
 10
189.3994992185
 20
52.3859025935
 30
0.0
 40
2.6458333333
 41
0.0
 71
     2
 72
     1
  1
28
  7
SLDTEXTSTYLE0
 73
     1
 44
1.0
  0
MTEXT
  5
221
330
1F
100
AcDbEntity
  8
NOTES
100
AcDbMText
 10
180.5794992185
 20
52.3859025935
 30
0.0
 40
2.6458333333
 41
0.0
 71
     2
 72
     1
  1
27
  7
SLDTEXTSTYLE0
 73
     1
 44
1.0
  0
MTEXT
  5
222
330
1F
100
AcDbEntity
  8
NOTES
100
AcDbMText
 10
171.7594992185
 20
52.3859025935
 30
0.0
 40
2.6458333333
 41
0.0
 71
     2
 72
     1
  1
26
  7
SLDTEXTSTYLE0
 73
     1
 44
1.0
  0
MTEXT
  5
223
330
1F
100
AcDbEntity
  8
NOTES
100
AcDbMText
 10
162.9394992185
 20
52.3859025935
 30
0.0
 40
2.6458333333
 41
0.0
 71
     2
 72
     1
  1
25
  7
SLDTEXTSTYLE0
 73
     1
 44
1.0
  0
MTEXT
  5
224
330
1F
100
AcDbEntity
  8
NOTES
100
AcDbMText
 10
154.1194992185
 20
52.3859025935
 30
0.0
 40
2.6458333333
 41
0.0
 71
     2
 72
     1
  1
24
  7
SLDTEXTSTYLE0
 73
     1
 44
1.0
  0
MTEXT
  5
225
330
1F
100
AcDbEntity
  8
NOTES
100
AcDbMText
 10
145.2994992185
 20
52.3859025935
 30
0.0
 40
2.6458333333
 41
0.0
 71
     2
 72
     1
  1
23
  7
SLDTEXTSTYLE0
 73
     1
 44
1.0
  0
MTEXT
  5
226
330
1F
100
AcDbEntity
  8
NOTES
100
AcDbMText
 10
136.4794992185
 20
52.3859025935
 30
0.0
 40
2.6458333333
 41
0.0
 71
     2
 72
     1
  1
22
  7
SLDTEXTSTYLE0
 73
     1
 44
1.0
  0
MTEXT
  5
227
330
1F
100
AcDbEntity
  8
NOTES
100
AcDbMText
 10
127.6594992185
 20
52.3859025935
 30
0.0
 40
2.6458333333
 41
0.0
 71
     2
 72
     1
  1
21
  7
SLDTEXTSTYLE0
 73
     1
 44
1.0
  0
MTEXT
  5
228
330
1F
100
AcDbEntity
  8
NOTES
100
AcDbMText
 10
118.8394992185
 20
52.3859025935
 30
0.0
 40
2.6458333333
 41
0.0
 71
     2
 72
     1
  1
20
  7
SLDTEXTSTYLE0
 73
     1
 44
1.0
  0
MTEXT
  5
229
330
1F
100
AcDbEntity
  8
NOTES
100
AcDbMText
 10
110.0194992185
 20
52.3859025935
 30
0.0
 40
2.6458333333
 41
0.0
 71
     2
 72
     1
  1
19
  7
SLDTEXTSTYLE0
 73
     1
 44
1.0
  0
MTEXT
  5
22A
330
1F
100
AcDbEntity
  8
NOTES
100
AcDbMText
 10
101.1994992185
 20
52.3859025935
 30
0.0
 40
2.6458333333
 41
0.0
 71
     2
 72
     1
  1
18
  7
SLDTEXTSTYLE0
 73
     1
 44
1.0
  0
MTEXT
  5
22B
330
1F
100
AcDbEntity
  8
NOTES
100
AcDbMText
 10
92.3794992185
 20
52.3859025935
 30
0.0
 40
2.6458333333
 41
0.0
 71
     2
 72
     1
  1
17
  7
SLDTEXTSTYLE0
 73
     1
 44
1.0
  0
MTEXT
  5
22C
330
1F
100
AcDbEntity
  8
NOTES
100
AcDbMText
 10
83.5594992185
 20
52.3859025935
 30
0.0
 40
2.6458333333
 41
0.0
 71
     2
 72
     1
  1
16
  7
SLDTEXTSTYLE0
 73
     1
 44
1.0
  0
MTEXT
  5
22D
330
1F
100
AcDbEntity
  8
NOTES
100
AcDbMText
 10
203.1631994266
 20
178.4184162548
 30
0.0
 40
2.6458333333
 41
0.0
 71
     2
 72
     1
  1
42
  7
SLDTEXTSTYLE0
 73
     1
 44
1.0
  0
MTEXT
  5
22E
330
1F
100
AcDbEntity
  8
NOTES
100
AcDbMText
 10
203.1631994266
 20
169.5984162548
 30
0.0
 40
2.6458333333
 41
0.0
 71
     2
 72
     1
  1
41
  7
SLDTEXTSTYLE0
 73
     1
 44
1.0
  0
MTEXT
  5
22F
330
1F
100
AcDbEntity
  8
NOTES
100
AcDbMText
 10
203.1631994266
 20
160.7784162548
 30
0.0
 40
2.6458333333
 41
0.0
 71
     2
 72
     1
  1
40
  7
SLDTEXTSTYLE0
 73
     1
 44
1.0
  0
MTEXT
  5
230
330
1F
100
AcDbEntity
  8
NOTES
100
AcDbMText
 10
203.1631994266
 20
151.9584162548
 30
0.0
 40
2.6458333333
 41
0.0
 71
     2
 72
     1
  1
39
  7
SLDTEXTSTYLE0
 73
     1
 44
1.0
  0
MTEXT
  5
231
330
1F
100
AcDbEntity
  8
NOTES
100
AcDbMText
 10
203.1631994266
 20
143.1384162548
 30
0.0
 40
2.6458333333
 41
0.0
 71
     2
 72
     1
  1
38
  7
SLDTEXTSTYLE0
 73
     1
 44
1.0
  0
MTEXT
  5
232
330
1F
100
AcDbEntity
  8
NOTES
100
AcDbMText
 10
203.1631994266
 20
134.3734217554
 30
0.0
 40
2.6458333333
 41
0.0
 71
     2
 72
     1
  1
37
  7
SLDTEXTSTYLE0
 73
     1
 44
1.0
  0
MTEXT
  5
233
330
1F
100
AcDbEntity
  8
NOTES
100
AcDbMText
 10
203.1631994266
 20
125.4984162548
 30
0.0
 40
2.6458333333
 41
0.0
 71
     2
 72
     1
  1
36
  7
SLDTEXTSTYLE0
 73
     1
 44
1.0
  0
MTEXT
  5
234
330
1F
100
AcDbEntity
  8
NOTES
100
AcDbMText
 10
203.1631994266
 20
116.6784162548
 30
0.0
 40
2.6458333333
 41
0.0
 71
     2
 72
     1
  1
35
  7
SLDTEXTSTYLE0
 73
     1
 44
1.0
  0
MTEXT
  5
235
330
1F
100
AcDbEntity
  8
NOTES
100
AcDbMText
 10
203.1631994266
 20
107.8584162548
 30
0.0
 40
2.6458333333
 41
0.0
 71
     2
 72
     1
  1
34
  7
SLDTEXTSTYLE0
 73
     1
 44
1.0
  0
MTEXT
  5
236
330
1F
100
AcDbEntity
  8
NOTES
100
AcDbMText
 10
203.1631994266
 20
99.0384162548
 30
0.0
 40
2.6458333333
 41
0.0
 71
     2
 72
     1
  1
33
  7
SLDTEXTSTYLE0
 73
     1
 44
1.0
  0
MTEXT
  5
237
330
1F
100
AcDbEntity
  8
NOTES
100
AcDbMText
 10
203.1631994266
 20
90.2184162548
 30
0.0
 40
2.6458333333
 41
0.0
 71
     2
 72
     1
  1
32
  7
SLDTEXTSTYLE0
 73
     1
 44
1.0
  0
MTEXT
  5
238
330
1F
100
AcDbEntity
  8
NOTES
100
AcDbMText
 10
203.1631994266
 20
81.4534217554
 30
0.0
 40
2.6458333333
 41
0.0
 71
     2
 72
     1
  1
31
  7
SLDTEXTSTYLE0
 73
     1
 44
1.0
  0
MTEXT
  5
239
330
1F
100
AcDbEntity
  8
NOTES
100
AcDbMText
 10
203.1631994266
 20
72.5784162548
 30
0.0
 40
2.6458333333
 41
0.0
 71
     2
 72
     1
  1
30
  7
SLDTEXTSTYLE0
 73
     1
 44
1.0
  0
MTEXT
  5
23A
330
1F
100
AcDbEntity
  8
NOTES
100
AcDbMText
 10
61.6612293086
 20
178.4184162548
 30
0.0
 40
2.6458333333
 41
0.0
 71
     2
 72
     1
  1
1
  7
SLDTEXTSTYLE0
 73
     1
 44
1.0
  0
MTEXT
  5
23B
330
1F
100
AcDbEntity
  8
NOTES
100
AcDbMText
 10
61.6612293086
 20
169.5984162548
 30
0.0
 40
2.6458333333
 41
0.0
 71
     2
 72
     1
  1
2
  7
SLDTEXTSTYLE0
 73
     1
 44
1.0
  0
MTEXT
  5
23C
330
1F
100
AcDbEntity
  8
NOTES
100
AcDbMText
 10
61.6612293086
 20
160.7784162548
 30
0.0
 40
2.6458333333
 41
0.0
 71
     2
 72
     1
  1
3
  7
SLDTEXTSTYLE0
 73
     1
 44
1.0
  0
MTEXT
  5
23D
330
1F
100
AcDbEntity
  8
NOTES
100
AcDbMText
 10
61.6612293086
 20
151.9584162548
 30
0.0
 40
2.6458333333
 41
0.0
 71
     2
 72
     1
  1
4
  7
SLDTEXTSTYLE0
 73
     1
 44
1.0
  0
MTEXT
  5
23E
330
1F
100
AcDbEntity
  8
NOTES
100
AcDbMText
 10
61.6612293086
 20
143.1384162548
 30
0.0
 40
2.6458333333
 41
0.0
 71
     2
 72
     1
  1
5
  7
SLDTEXTSTYLE0
 73
     1
 44
1.0
  0
MTEXT
  5
23F
330
1F
100
AcDbEntity
  8
NOTES
100
AcDbMText
 10
61.6612293086
 20
134.3734217554
 30
0.0
 40
2.6458333333
 41
0.0
 71
     2
 72
     1
  1
6
  7
SLDTEXTSTYLE0
 73
     1
 44
1.0
  0
MTEXT
  5
240
330
1F
100
AcDbEntity
  8
NOTES
100
AcDbMText
 10
61.6612293086
 20
125.4984162548
 30
0.0
 40
2.6458333333
 41
0.0
 71
     2
 72
     1
  1
7
  7
SLDTEXTSTYLE0
 73
     1
 44
1.0
  0
MTEXT
  5
241
330
1F
100
AcDbEntity
  8
NOTES
100
AcDbMText
 10
61.6612293086
 20
116.6784162548
 30
0.0
 40
2.6458333333
 41
0.0
 71
     2
 72
     1
  1
8
  7
SLDTEXTSTYLE0
 73
     1
 44
1.0
  0
MTEXT
  5
242
330
1F
100
AcDbEntity
  8
NOTES
100
AcDbMText
 10
61.6612293086
 20
107.8584162548
 30
0.0
 40
2.6458333333
 41
0.0
 71
     2
 72
     1
  1
9
  7
SLDTEXTSTYLE0
 73
     1
 44
1.0
  0
MTEXT
  5
243
330
1F
100
AcDbEntity
  8
NOTES
100
AcDbMText
 10
61.6734784971
 20
99.0384162548
 30
0.0
 40
2.6458333333
 41
0.0
 71
     2
 72
     1
  1
10
  7
SLDTEXTSTYLE0
 73
     1
 44
1.0
  0
MTEXT
  5
244
330
1F
100
AcDbEntity
  8
NOTES
100
AcDbMText
 10
61.6734784971
 20
90.2184162548
 30
0.0
 40
2.6458333333
 41
0.0
 71
     2
 72
     1
  1
11
  7
SLDTEXTSTYLE0
 73
     1
 44
1.0
  0
MTEXT
  5
245
330
1F
100
AcDbEntity
  8
NOTES
100
AcDbMText
 10
61.6734784971
 20
81.4534217554
 30
0.0
 40
2.6458333333
 41
0.0
 71
     2
 72
     1
  1
12
  7
SLDTEXTSTYLE0
 73
     1
 44
1.0
  0
MTEXT
  5
246
330
1F
100
AcDbEntity
  8
NOTES
100
AcDbMText
 10
61.6734784971
 20
72.5784162548
 30
0.0
 40
2.6458333333
 41
0.0
 71
     2
 72
     1
  1
13
  7
SLDTEXTSTYLE0
 73
     1
 44
1.0
  0
ENDSEC
  0
SECTION
  2
OBJECTS
  0
DICTIONARY
  5
C
330
0
100
AcDbDictionary
281
     1
  3
ACAD_GROUP
350
D
  3
ACAD_LAYOUT
350
1A
  3
ACAD_MLINESTYLE
350
17
  3
ACAD_PLOTSETTINGS
350
19
  3
ACAD_PLOTSTYLENAME
350
E
  3
ACAD_SCALELIST
350
47
  0
DICTIONARY
  5
D
102
{ACAD_REACTORS
330
C
102
}
330
C
100
AcDbDictionary
281
     1
  0
DICTIONARY
  5
1A
102
{ACAD_REACTORS
330
C
102
}
330
C
100
AcDbDictionary
281
     1
  3
Layout1
350
1E
  3
Layout2
350
26
  3
Model
350
22
  0
DICTIONARY
  5
17
102
{ACAD_REACTORS
330
C
102
}
330
C
100
AcDbDictionary
281
     1
  3
Standard
350
18
  0
DICTIONARY
  5
19
102
{ACAD_REACTORS
330
C
102
}
330
C
100
AcDbDictionary
281
     1
  0
ACDBDICTIONARYWDFLT
  5
E
102
{ACAD_REACTORS
330
C
102
}
330
C
100
AcDbDictionary
281
     1
  3
Normal
350
F
100
AcDbDictionaryWithDefault
340
F
  0
DICTIONARY
  5
47
102
{ACAD_REACTORS
330
C
102
}
330
C
100
AcDbDictionary
281
     1
  3
A0
350
48
  3
A1
350
49
  3
A2
350
4A
  3
A3
350
4B
  3
A4
350
4C
  3
A5
350
4D
  3
A6
350
4E
  3
A7
350
4F
  3
A8
350
50
  3
A9
350
51
  3
B0
350
52
  3
B1
350
53
  3
B2
350
54
  3
B3
350
55
  3
B4
350
56
  3
B5
350
57
  3
B6
350
58
  3
B7
350
59
  3
B8
350
5A
  3
B9
350
5B
  3
C0
350
5C
  3
C1
350
5D
  3
C2
350
5E
  3
C3
350
5F
  3
C4
350
60
  3
C5
350
61
  3
C6
350
62
  3
C7
350
63
  3
C8
350
64
  3
C9
350
65
  3
D0
350
66
  3
D1
350
67
  3
D2
350
68
  0
LAYOUT
  5
1E
102
{ACAD_REACTORS
330
1A
102
}
330
1A
100
AcDbPlotSettings
  1

  2
none_device
  4

  6

 40
0.0
 41
0.0
 42
0.0
 43
0.0
 44
0.0
 45
0.0
 46
0.0
 47
0.0
 48
0.0
 49
0.0
140
0.0
141
0.0
142
1.0
143
1.0
 70
   688
 72
     1
 73
     0
 74
     5
  7

 75
    16
147
1.0
148
0.0
149
0.0
100
AcDbLayout
  1
Layout1
 70
     1
 71
     1
 10
0.0
 20
0.0
 11
420.0
 21
297.0
 12
0.0
 22
0.0
 32
0.0
 14
1.0000000000E+20
 24
1.0000000000E+20
 34
1.0000000000E+20
 15
-1.0000000000E+20
 25
-1.0000000000E+20
 35
-1.0000000000E+20
146
0.0
 13
0.0
 23
0.0
 33
0.0
 16
1.0
 26
0.0
 36
0.0
 17
0.0
 27
1.0
 37
0.0
 76
     0
330
1B
  0
LAYOUT
  5
26
102
{ACAD_REACTORS
330
1A
102
}
330
1A
100
AcDbPlotSettings
  1

  2
none_device
  4

  6

 40
0.0
 41
0.0
 42
0.0
 43
0.0
 44
0.0
 45
0.0
 46
0.0
 47
0.0
 48
0.0
 49
0.0
140
0.0
141
0.0
142
1.0
143
1.0
 70
   688
 72
     1
 73
     0
 74
     5
  7

 75
    16
147
1.0
148
0.0
149
0.0
100
AcDbLayout
  1
Layout2
 70
     1
 71
     2
 10
0.0
 20
0.0
 11
0.0
 21
0.0
 12
0.0
 22
0.0
 32
0.0
 14
0.0
 24
0.0
 34
0.0
 15
0.0
 25
0.0
 35
0.0
146
0.0
 13
0.0
 23
0.0
 33
0.0
 16
1.0
 26
0.0
 36
0.0
 17
0.0
 27
1.0
 37
0.0
 76
     0
330
23
  0
LAYOUT
  5
22
102
{ACAD_REACTORS
330
1A
102
}
330
1A
100
AcDbPlotSettings
  1

  2
none_device
  4
Letter_(8.50_x_11.00_Inches)
  6

 40
6.35
 41
6.35
 42
6.35000508
 43
6.35000508
 44
215.9
 45
279.4
 46
0.0
 47
0.0
 48
0.0
 49
0.0
140
0.0
141
0.0
142
1.0
143
1.0
 70
  1712
 72
     1
 73
     0
 74
     0
  7

 75
     0
147
1.0
148
0.0
149
0.0
100
AcDbLayout
  1
Model
 70
     1
 71
     0
 10
0.0
 20
0.0
 11
279.4
 21
215.9
 12
0.0
 22
0.0
 32
0.0
 14
0.0
 24
0.0
 34
0.0
 15
279.4
 25
215.9
 35
0.0
146
0.0
 13
0.0
 23
0.0
 33
0.0
 16
1.0
 26
0.0
 36
0.0
 17
0.0
 27
1.0
 37
0.0
 76
     0
330
1F
331
29
  0
MLINESTYLE
  5
18
102
{ACAD_REACTORS
330
17
102
}
330
17
100
AcDbMlineStyle
  2
Standard
 70
     0
  3

 62
   256
 51
90.0
 52
90.0
 71
     2
 49
0.5
 62
   256
  6
BYLAYER
 49
-0.5
 62
   256
  6
BYLAYER
  0
ACDBPLACEHOLDER
  5
F
102
{ACAD_REACTORS
330
E
102
}
330
E
  0
SCALE
  5
48
102
{ACAD_REACTORS
330
47
102
}
330
47
100
AcDbScale
 70
     0
300
1:1
140
1.0
141
1.0
290
     1
  0
SCALE
  5
49
102
{ACAD_REACTORS
330
47
102
}
330
47
100
AcDbScale
 70
     0
300
1:2
140
1.0
141
2.0
290
     0
  0
SCALE
  5
4A
102
{ACAD_REACTORS
330
47
102
}
330
47
100
AcDbScale
 70
     0
300
1:4
140
1.0
141
4.0
290
     0
  0
SCALE
  5
4B
102
{ACAD_REACTORS
330
47
102
}
330
47
100
AcDbScale
 70
     0
300
1:5
140
1.0
141
5.0
290
     0
  0
SCALE
  5
4C
102
{ACAD_REACTORS
330
47
102
}
330
47
100
AcDbScale
 70
     0
300
1:8
140
1.0
141
8.0
290
     0
  0
SCALE
  5
4D
102
{ACAD_REACTORS
330
47
102
}
330
47
100
AcDbScale
 70
     0
300
1:10
140
1.0
141
10.0
290
     0
  0
SCALE
  5
4E
102
{ACAD_REACTORS
330
47
102
}
330
47
100
AcDbScale
 70
     0
300
1:16
140
1.0
141
16.0
290
     0
  0
SCALE
  5
4F
102
{ACAD_REACTORS
330
47
102
}
330
47
100
AcDbScale
 70
     0
300
1:20
140
1.0
141
20.0
290
     0
  0
SCALE
  5
50
102
{ACAD_REACTORS
330
47
102
}
330
47
100
AcDbScale
 70
     0
300
1:30
140
1.0
141
30.0
290
     0
  0
SCALE
  5
51
102
{ACAD_REACTORS
330
47
102
}
330
47
100
AcDbScale
 70
     0
300
1:40
140
1.0
141
40.0
290
     0
  0
SCALE
  5
52
102
{ACAD_REACTORS
330
47
102
}
330
47
100
AcDbScale
 70
     0
300
1:50
140
1.0
141
50.0
290
     0
  0
SCALE
  5
53
102
{ACAD_REACTORS
330
47
102
}
330
47
100
AcDbScale
 70
     0
300
1:100
140
1.0
141
100.0
290
     0
  0
SCALE
  5
54
102
{ACAD_REACTORS
330
47
102
}
330
47
100
AcDbScale
 70
     0
300
2:1
140
2.0
141
1.0
290
     0
  0
SCALE
  5
55
102
{ACAD_REACTORS
330
47
102
}
330
47
100
AcDbScale
 70
     0
300
4:1
140
4.0
141
1.0
290
     0
  0
SCALE
  5
56
102
{ACAD_REACTORS
330
47
102
}
330
47
100
AcDbScale
 70
     0
300
8:1
140
8.0
141
1.0
290
     0
  0
SCALE
  5
57
102
{ACAD_REACTORS
330
47
102
}
330
47
100
AcDbScale
 70
     0
300
10:1
140
10.0
141
1.0
290
     0
  0
SCALE
  5
58
102
{ACAD_REACTORS
330
47
102
}
330
47
100
AcDbScale
 70
     0
300
100:1
140
100.0
141
1.0
290
     0
  0
SCALE
  5
59
102
{ACAD_REACTORS
330
47
102
}
330
47
100
AcDbScale
 70
     0
300
1/128" = 1'-0"
140
0.0078125
141
12.0
290
     0
  0
SCALE
  5
5A
102
{ACAD_REACTORS
330
47
102
}
330
47
100
AcDbScale
 70
     0
300
1/64" = 1'-0"
140
0.015625
141
12.0
290
     0
  0
SCALE
  5
5B
102
{ACAD_REACTORS
330
47
102
}
330
47
100
AcDbScale
 70
     0
300
1/32" = 1'-0"
140
0.03125
141
12.0
290
     0
  0
SCALE
  5
5C
102
{ACAD_REACTORS
330
47
102
}
330
47
100
AcDbScale
 70
     0
300
1/16" = 1'-0"
140
0.0625
141
12.0
290
     0
  0
SCALE
  5
5D
102
{ACAD_REACTORS
330
47
102
}
330
47
100
AcDbScale
 70
     0
300
3/32" = 1'-0"
140
0.09375
141
12.0
290
     0
  0
SCALE
  5
5E
102
{ACAD_REACTORS
330
47
102
}
330
47
100
AcDbScale
 70
     0
300
1/8" = 1'-0"
140
0.125
141
12.0
290
     0
  0
SCALE
  5
5F
102
{ACAD_REACTORS
330
47
102
}
330
47
100
AcDbScale
 70
     0
300
3/16" = 1'-0"
140
0.1875
141
12.0
290
     0
  0
SCALE
  5
60
102
{ACAD_REACTORS
330
47
102
}
330
47
100
AcDbScale
 70
     0
300
1/4" = 1'-0"
140
0.25
141
12.0
290
     0
  0
SCALE
  5
61
102
{ACAD_REACTORS
330
47
102
}
330
47
100
AcDbScale
 70
     0
300
3/8" = 1'-0"
140
0.375
141
12.0
290
     0
  0
SCALE
  5
62
102
{ACAD_REACTORS
330
47
102
}
330
47
100
AcDbScale
 70
     0
300
1/2" = 1'-0"
140
0.5
141
12.0
290
     0
  0
SCALE
  5
63
102
{ACAD_REACTORS
330
47
102
}
330
47
100
AcDbScale
 70
     0
300
3/4" = 1'-0"
140
0.75
141
12.0
290
     0
  0
SCALE
  5
64
102
{ACAD_REACTORS
330
47
102
}
330
47
100
AcDbScale
 70
     0
300
1" = 1'-0"
140
1.0
141
12.0
290
     0
  0
SCALE
  5
65
102
{ACAD_REACTORS
330
47
102
}
330
47
100
AcDbScale
 70
     0
300
1-1/2" = 1'-0"
140
1.5
141
12.0
290
     0
  0
SCALE
  5
66
102
{ACAD_REACTORS
330
47
102
}
330
47
100
AcDbScale
 70
     0
300
3" = 1'-0"
140
3.0
141
12.0
290
     0
  0
SCALE
  5
67
102
{ACAD_REACTORS
330
47
102
}
330
47
100
AcDbScale
 70
     0
300
6" = 1'-0"
140
6.0
141
12.0
290
     0
  0
SCALE
  5
68
102
{ACAD_REACTORS
330
47
102
}
330
47
100
AcDbScale
 70
     0
300
1'-0" = 1'-0"
140
12.0
141
12.0
290
     0
  0
ENDSEC
  0
EOF
